  0
SECTION
  2
HEADER
  9
$ACADVER
  1
AC1015
  9
$ACADMAINTVER
 70
     6
  9
$DWGCODEPAGE
  3
ANSI_932
  9
$INSBASE
 10
0.0
 20
0.0
 30
0.0
  9
$EXTMIN
 10
96.55297421387166
 20
40.0
 30
0.0
  9
$EXTMAX
 10
372.0
 20
434.3617301569658
 30
0.0
  9
$LIMMIN
 10
96.55297421387166
 20
40.0
  9
$LIMMAX
 10
372.0
 20
434.3617301569658
  9
$ORTHOMODE
 70
     0
  9
$REGENMODE
 70
     1
  9
$FILLMODE
 70
     1
  9
$QTEXTMODE
 70
     0
  9
$MIRRTEXT
 70
     1
  9
$LTSCALE
 40
0.2277154347363057
  9
$ATTMODE
 70
     1
  9
$TEXTSIZE
 40
2.5
  9
$TRACEWID
 40
1.0
  9
$TEXTSTYLE
  7
Standard
  9
$CLAYER
  8
0
  9
$CELTYPE
  6
ByLayer
  9
$CECOLOR
 62
   256
  9
$CELTSCALE
 40
1.0
  9
$DISPSILH
 70
     0
  9
$DIMSCALE
 40
1.0
  9
$DIMASZ
 40
2.5
  9
$DIMEXO
 40
0.625
  9
$DIMDLI
 40
3.75
  9
$DIMRND
 40
0.0
  9
$DIMDLE
 40
0.0
  9
$DIMEXE
 40
1.25
  9
$DIMTP
 40
0.0
  9
$DIMTM
 40
0.0
  9
$DIMTXT
 40
2.5
  9
$DIMCEN
 40
2.5
  9
$DIMTSZ
 40
0.0
  9
$DIMTOL
 70
     0
  9
$DIMLIM
 70
     0
  9
$DIMTIH
 70
     0
  9
$DIMTOH
 70
     0
  9
$DIMSE1
 70
     0
  9
$DIMSE2
 70
     0
  9
$DIMTAD
 70
     1
  9
$DIMZIN
 70
     0
  9
$DIMBLK
  1

  9
$DIMASO
 70
     1
  9
$DIMSHO
 70
     1
  9
$DIMPOST
  1

  9
$DIMAPOST
  1

  9
$DIMALT
 70
     0
  9
$DIMALTD
 70
     3
  9
$DIMALTF
 40
0.03937007874016
  9
$DIMLFAC
 40
1.0
  9
$DIMTOFL
 70
     1
  9
$DIMTVP
 40
0.0
  9
$DIMTIX
 70
     0
  9
$DIMSOXD
 70
     0
  9
$DIMSAH
 70
     0
  9
$DIMBLK1
  1

  9
$DIMBLK2
  1

  9
$DIMSTYLE
  2
Standard
  9
$DIMCLRD
 70
     0
  9
$DIMCLRE
 70
     0
  9
$DIMCLRT
 70
     0
  9
$DIMTFAC
 40
0.75
  9
$DIMGAP
 40
0.625
  9
$DIMJUST
 70
     0
  9
$DIMSD1
 70
     0
  9
$DIMSD2
 70
     0
  9
$DIMTOLJ
 70
     0
  9
$DIMTZIN
 70
     8
  9
$DIMALTZ
 70
     0
  9
$DIMALTTZ
 70
     0
  9
$DIMUPT
 70
     0
  9
$DIMDEC
 70
     2
  9
$DIMTDEC
 70
     2
  9
$DIMALTU
 70
     2
  9
$DIMALTTD
 70
     3
  9
$DIMTXSTY
  7
Standard
  9
$DIMAUNIT
 70
     0
  9
$DIMADEC
 70
     0
  9
$DIMALTRND
 40
0.0
  9
$DIMAZIN
 70
     0
  9
$DIMDSEP
 70
    46
  9
$DIMATFIT
 70
     3
  9
$DIMFRAC
 70
     0
  9
$DIMLDRBLK
  1

  9
$DIMLUNIT
 70
     2
  9
$DIMLWD
 70
    -2
  9
$DIMLWE
 70
    -2
  9
$DIMTMOVE
 70
     0
  9
$LUNITS
 70
     2
  9
$LUPREC
 70
     4
  9
$SKETCHINC
 40
1.0
  9
$FILLETRAD
 40
10.0
  9
$AUNITS
 70
     0
  9
$AUPREC
 70
     0
  9
$MENU
  1
.
  9
$ELEVATION
 40
0.0
  9
$PELEVATION
 40
0.0
  9
$THICKNESS
 40
0.0
  9
$LIMCHECK
 70
     0
  9
$CHAMFERA
 40
10.0
  9
$CHAMFERB
 40
10.0
  9
$CHAMFERC
 40
20.0
  9
$CHAMFERD
 40
0.0
  9
$SKPOLY
 70
     0
  9
$TDCREATE
 40
2457922.721506667
  9
$TDUCREATE
 40
2457922.346506667
  9
$TDUPDATE
 40
2457922.721507211
  9
$TDUUPDATE
 40
2457922.346507211
  9
$TDINDWG
 40
0.0000000116
  9
$TDUSRTIMER
 40
0.0000000116
  9
$USRTIMER
 70
     1
  9
$ANGBASE
 50
0.0
  9
$ANGDIR
 70
     0
  9
$PDMODE
 70
     0
  9
$PDSIZE
 40
0.0
  9
$PLINEWID
 40
0.0
  9
$SPLFRAME
 70
     0
  9
$SPLINETYPE
 70
     6
  9
$SPLINESEGS
 70
     8
  9
$HANDSEED
  5
294
  9
$SURFTAB1
 70
     6
  9
$SURFTAB2
 70
     6
  9
$SURFTYPE
 70
     6
  9
$SURFU
 70
     6
  9
$SURFV
 70
     6
  9
$UCSBASE
  2

  9
$UCSNAME
  2

  9
$UCSORG
 10
0.0
 20
0.0
 30
0.0
  9
$UCSXDIR
 10
1.0
 20
0.0
 30
0.0
  9
$UCSYDIR
 10
0.0
 20
1.0
 30
0.0
  9
$UCSORTHOREF
  2

  9
$UCSORTHOVIEW
 70
     0
  9
$UCSORGTOP
 10
0.0
 20
0.0
 30
0.0
  9
$UCSORGBOTTOM
 10
0.0
 20
0.0
 30
0.0
  9
$UCSORGLEFT
 10
0.0
 20
0.0
 30
0.0
  9
$UCSORGRIGHT
 10
0.0
 20
0.0
 30
0.0
  9
$UCSORGFRONT
 10
0.0
 20
0.0
 30
0.0
  9
$UCSORGBACK
 10
0.0
 20
0.0
 30
0.0
  9
$PUCSBASE
  2

  9
$PUCSNAME
  2

  9
$PUCSORG
 10
0.0
 20
0.0
 30
0.0
  9
$PUCSXDIR
 10
1.0
 20
0.0
 30
0.0
  9
$PUCSYDIR
 10
0.0
 20
1.0
 30
0.0
  9
$PUCSORTHOREF
  2

  9
$PUCSORTHOVIEW
 70
     0
  9
$PUCSORGTOP
 10
0.0
 20
0.0
 30
0.0
  9
$PUCSORGBOTTOM
 10
0.0
 20
0.0
 30
0.0
  9
$PUCSORGLEFT
 10
0.0
 20
0.0
 30
0.0
  9
$PUCSORGRIGHT
 10
0.0
 20
0.0
 30
0.0
  9
$PUCSORGFRONT
 10
0.0
 20
0.0
 30
0.0
  9
$PUCSORGBACK
 10
0.0
 20
0.0
 30
0.0
  9
$USERI1
 70
     0
  9
$USERI2
 70
     0
  9
$USERI3
 70
     0
  9
$USERI4
 70
     0
  9
$USERI5
 70
     0
  9
$USERR1
 40
0.0
  9
$USERR2
 40
0.0
  9
$USERR3
 40
0.0
  9
$USERR4
 40
0.0
  9
$USERR5
 40
0.0
  9
$WORLDVIEW
 70
     1
  9
$SHADEDGE
 70
     3
  9
$SHADEDIF
 70
    70
  9
$TILEMODE
 70
     1
  9
$MAXACTVP
 70
    64
  9
$PINSBASE
 10
0.0
 20
0.0
 30
0.0
  9
$PLIMCHECK
 70
     0
  9
$PEXTMIN
 10
1.000000000000000E+20
 20
1.000000000000000E+20
 30
1.000000000000000E+20
  9
$PEXTMAX
 10
-1.000000000000000E+20
 20
-1.000000000000000E+20
 30
-1.000000000000000E+20
  9
$PLIMMIN
 10
0.0
 20
0.0
  9
$PLIMMAX
 10
420.0
 20
297.0
  9
$UNITMODE
 70
     0
  9
$VISRETAIN
 70
     1
  9
$PLINEGEN
 70
     0
  9
$PSLTSCALE
 70
     0
  9
$TREEDEPTH
 70
  3020
  9
$CMLSTYLE
  2
Standard
  9
$CMLJUST
 70
     0
  9
$CMLSCALE
 40
20.0
  9
$PROXYGRAPHICS
 70
     1
  9
$MEASUREMENT
 70
     1
  9
$CELWEIGHT
370
    -1
  9
$ENDCAPS
280
     0
  9
$JOINSTYLE
280
     0
  9
$LWDISPLAY
290
     0
  9
$INSUNITS
 70
     4
  9
$HYPERLINKBASE
  1

  9
$STYLESHEET
  1

  9
$XEDIT
290
     1
  9
$CEPSNTYPE
380
     0
  9
$PSTYLEMODE
290
     1
  9
$FINGERPRINTGUID
  2
{636DD1C9-972D-4577-9415-F0F00707A278}
  9
$VERSIONGUID
  2
{FAEB1C32-E019-11D5-929B-00C0DF256EC4}
  9
$EXTNAMES
290
     1
  9
$PSVPSCALE
 40
0.0
  9
$OLESTARTUP
290
     0
  0
ENDSEC
  0
SECTION
  2
CLASSES
  0
CLASS
  1
ACDBDICTIONARYWDFLT
  2
AcDbDictionaryWithDefault
  3
ObjectDBX Classes
 90
        0
280
     0
281
     0
  0
CLASS
  1
VISUALSTYLE
  2
AcDbVisualStyle
  3
ObjectDBX Classes
 90
     4095
280
     0
281
     0
  0
CLASS
  1
MATERIAL
  2
AcDbMaterial
  3
ObjectDBX Classes
 90
     1153
280
     0
281
     0
  0
CLASS
  1
SCALE
  2
AcDbScale
  3
ObjectDBX Classes
 90
     1153
280
     0
281
     0
  0
CLASS
  1
DICTIONARYVAR
  2
AcDbDictionaryVar
  3
ObjectDBX Classes
 90
        0
280
     0
281
     0
  0
CLASS
  1
ACDBPLACEHOLDER
  2
AcDbPlaceHolder
  3
ObjectDBX Classes
 90
        0
280
     0
281
     0
  0
CLASS
  1
LAYOUT
  2
AcDbLayout
  3
ObjectDBX Classes
 90
        0
280
     0
281
     0
  0
ENDSEC
  0
SECTION
  2
TABLES
  0
TABLE
  2
VPORT
  5
8
330
0
100
AcDbSymbolTable
 70
     1
  0
VPORT
  5
29
330
8
100
AcDbSymbolTableRecord
100
AcDbViewportTableRecord
  2
*Active
 70
     0
 10
0.0
 20
0.0
 11
1.0
 21
1.0
 12
234.2764871069358
 22
237.1808650784829
 13
0.0
 23
0.0
 14
10.0
 24
10.0
 15
10.0
 25
10.0
 16
0.0
 26
0.0
 36
1.0
 17
0.0
 27
0.0
 37
0.0
 40
433.7979031726624
 41
1.333333333333333
 42
50.0
 43
0.0
 44
0.0
 50
0.0
 51
0.0
 71
     0
 72
 20000
 73
     1
 74
     3
 75
     0
 76
     0
 77
     0
 78
     0
281
     0
 65
     1
110
0.0
120
0.0
130
0.0
111
1.0
121
0.0
131
0.0
112
0.0
122
1.0
132
0.0
 79
     0
146
0.0
  0
ENDTAB
  0
TABLE
  2
LTYPE
  5
5
330
0
100
AcDbSymbolTable
 70
     7
  0
LTYPE
  5
14
330
5
100
AcDbSymbolTableRecord
100
AcDbLinetypeTableRecord
  2
ByBlock
 70
     0
  3

 72
    65
 73
     0
 40
0.0
  0
LTYPE
  5
15
330
5
100
AcDbSymbolTableRecord
100
AcDbLinetypeTableRecord
  2
ByLayer
 70
     0
  3

 72
    65
 73
     0
 40
0.0
  0
LTYPE
  5
16
330
5
100
AcDbSymbolTableRecord
100
AcDbLinetypeTableRecord
  2
Continuous
 70
     0
  3
Solid line
 72
    65
 73
     0
 40
0.0
  0
LTYPE
  5
40
330
5
100
AcDbSymbolTableRecord
100
AcDbLinetypeTableRecord
  2
DASHED
 70
     0
  3
ICAD/SX(2) Dashed __ __ __ __ __ __ __ __ __ __ __ __ __ _
 72
    65
 73
     2
 40
19.05
 49
12.7
 74
     0
 49
-6.35
 74
     0
  0
LTYPE
  5
41
330
5
100
AcDbSymbolTableRecord
100
AcDbLinetypeTableRecord
  2
CENTER
 70
     0
  3
ICAD/SX(3) Center ____ _ ____ _ ____ _ ____ _ ____ _ ____
 72
    65
 73
     4
 40
50.8
 49
31.75
 74
     0
 49
-6.35
 74
     0
 49
6.35
 74
     0
 49
-6.35
 74
     0
  0
LTYPE
  5
42
330
5
100
AcDbSymbolTableRecord
100
AcDbLinetypeTableRecord
  2
PHANTOM
 70
     0
  3
ICAD/SX(4) Phantom ______  __  __  ______  __  __  ______
 72
    65
 73
     6
 40
63.5
 49
31.75
 74
     0
 49
-6.35
 74
     0
 49
6.35
 74
     0
 49
-6.35
 74
     0
 49
6.35
 74
     0
 49
-6.35
 74
     0
  0
LTYPE
  5
43
330
5
100
AcDbSymbolTableRecord
100
AcDbLinetypeTableRecord
  2
DOT
 70
     0
  3
ICAD/SX(5) Dot . . . . . . . . . . . . . . . . . . . . . . . .
 72
    65
 73
     2
 40
6.35
 49
0.0
 74
     0
 49
-6.35
 74
     0
  0
LTYPE
  5
44
330
5
100
AcDbSymbolTableRecord
100
AcDbLinetypeTableRecord
  2
HIDDEN
 70
     0
  3
ICAD/SX(6) Hidden __ __ __ __ __ __ __ __ __ __ __ __ __ __
 72
    65
 73
     2
 40
9.525
 49
6.35
 74
     0
 49
-3.175
 74
     0
  0
LTYPE
  5
45
330
5
100
AcDbSymbolTableRecord
100
AcDbLinetypeTableRecord
  2
DOTSX
 70
     0
  3
ICAD/SX(5) Dot . . . . . . . . . . . . . . . . . . . . . . . .
 72
    65
 73
     2
 40
6.35
 49
3.175
 74
     0
 49
-3.175
 74
     0
  0
ENDTAB
  0
TABLE
  2
LAYER
  5
2
330
0
100
AcDbSymbolTable
 70
    10
  0
LAYER
  5
10
330
2
100
AcDbSymbolTableRecord
100
AcDbLayerTableRecord
  2
0
 70
     0
 62
     7
  6
Continuous
370
    -3
390
F
  0
LAYER
  5
46
330
2
100
AcDbSymbolTableRecord
100
AcDbLayerTableRecord
  2
NoLayerName_001
 70
     0
 62
     7
  6
Continuous
370
    -3
390
F
  0
LAYER
  5
47
330
2
100
AcDbSymbolTableRecord
100
AcDbLayerTableRecord
  2
NoLayerName_002
 70
     0
 62
     7
  6
Continuous
370
    -3
390
F
  0
LAYER
  5
48
330
2
100
AcDbSymbolTableRecord
100
AcDbLayerTableRecord
  2
NoLayerName_003
 70
     0
 62
     7
  6
Continuous
370
    -3
390
F
  0
LAYER
  5
49
330
2
100
AcDbSymbolTableRecord
100
AcDbLayerTableRecord
  2
NoLayerName_004
 70
     0
 62
     7
  6
Continuous
370
    -3
390
F
  0
LAYER
  5
4A
330
2
100
AcDbSymbolTableRecord
100
AcDbLayerTableRecord
  2
NoLayerName_005
 70
     0
 62
     7
  6
Continuous
370
    -3
390
F
  0
LAYER
  5
4B
330
2
100
AcDbSymbolTableRecord
100
AcDbLayerTableRecord
  2
NoLayerName_006
 70
     0
 62
     7
  6
Continuous
370
    -3
390
F
  0
LAYER
  5
4C
330
2
100
AcDbSymbolTableRecord
100
AcDbLayerTableRecord
  2
NoLayerName_007
 70
     0
 62
     7
  6
Continuous
370
    -3
390
F
  0
LAYER
  5
4D
330
2
100
AcDbSymbolTableRecord
100
AcDbLayerTableRecord
  2
Defpoints
 70
     0
 62
     7
  6
Continuous
290
     0
370
    -3
390
F
  0
LAYER
  5
4E
330
2
100
AcDbSymbolTableRecord
100
AcDbLayerTableRecord
  2
SX_DraftLine
 70
     0
 62
     7
  6
Continuous
290
     0
370
    -3
390
F
  0
ENDTAB
  0
TABLE
  2
STYLE
  5
3
330
0
100
AcDbSymbolTable
 70
     2
  0
STYLE
  5
11
330
3
100
AcDbSymbolTableRecord
100
AcDbTextStyleTableRecord
  2
Standard
 70
     0
 40
0.0
 41
1.0
 50
0.0
 71
     0
 42
2.5
  3
txt
  4
extfont2
  0
STYLE
  5
3F
330
3
100
AcDbSymbolTableRecord
100
AcDbTextStyleTableRecord
  2

 70
     1
 40
0.0
 41
1.0
 50
0.0
 71
     0
 42
2.5
  3
ltypeshp.shx
  4

  0
ENDTAB
  0
TABLE
  2
VIEW
  5
6
330
0
100
AcDbSymbolTable
 70
     0
  0
ENDTAB
  0
TABLE
  2
UCS
  5
7
330
0
100
AcDbSymbolTable
 70
     0
  0
ENDTAB
  0
TABLE
  2
APPID
  5
9
330
0
100
AcDbSymbolTable
 70
     1
  0
APPID
  5
12
330
9
100
AcDbSymbolTableRecord
100
AcDbRegAppTableRecord
  2
ACAD
 70
     0
  0
ENDTAB
  0
TABLE
  2
DIMSTYLE
  5
A
330
0
100
AcDbSymbolTable
 70
     1
100
AcDbDimStyleTable
  0
DIMSTYLE
105
27
330
A
100
AcDbSymbolTableRecord
100
AcDbDimStyleTableRecord
  2
Standard
 70
     0
 41
2.5
 42
0.625
 43
3.75
 44
1.25
 73
     0
 74
     0
 77
     1
140
2.5
141
2.5
143
0.03937007874016
146
0.75
147
0.625
171
     3
172
     1
178
     0
271
     2
272
     2
274
     3
283
     0
284
     8
340
11
  0
ENDTAB
  0
TABLE
  2
BLOCK_RECORD
  5
1
330
0
100
AcDbSymbolTable
 70
     5
  0
BLOCK_RECORD
  5
1F
330
1
100
AcDbSymbolTableRecord
100
AcDbBlockTableRecord
  2
*Model_Space
340
22
  0
BLOCK_RECORD
  5
1B
330
1
100
AcDbSymbolTableRecord
100
AcDbBlockTableRecord
  2
*Paper_Space
340
1E
  0
BLOCK_RECORD
  5
23
330
1
100
AcDbSymbolTableRecord
100
AcDbBlockTableRecord
  2
*Paper_Space0
340
0
  0
BLOCK_RECORD
  5
4F
330
1
100
AcDbSymbolTableRecord
100
AcDbBlockTableRecord
  2
JZB_0001
340
0
102
{BLKREFS
331
235
102
}
  0
BLOCK_RECORD
  5
52
330
1
100
AcDbSymbolTableRecord
100
AcDbBlockTableRecord
  2
JZB_0002
340
0
102
{BLKREFS
331
236
102
}
  0
BLOCK_RECORD
  5
55
330
1
100
AcDbSymbolTableRecord
100
AcDbBlockTableRecord
  2
JZB_0003
340
0
102
{BLKREFS
331
237
102
}
  0
BLOCK_RECORD
  5
58
330
1
100
AcDbSymbolTableRecord
100
AcDbBlockTableRecord
  2
JZB_0004
340
0
102
{BLKREFS
331
238
102
}
  0
ENDTAB
  0
ENDSEC
  0
SECTION
  2
BLOCKS
  0
BLOCK
  5
20
330
1F
100
AcDbEntity
  8
0
100
AcDbBlockBegin
  2
*Model_Space
 70
     0
 10
0.0
 20
0.0
 30
0.0
  3
*Model_Space
  1

  0
ENDBLK
  5
21
330
1F
100
AcDbEntity
  8
0
100
AcDbBlockEnd
  0
BLOCK
  5
1C
330
1B
100
AcDbEntity
 67
     1
  8
0
100
AcDbBlockBegin
  2
*Paper_Space
 70
     0
 10
0.0
 20
0.0
 30
0.0
  3
*Paper_Space
  1

  0
ENDBLK
  5
1D
330
1B
100
AcDbEntity
 67
     1
  8
0
100
AcDbBlockEnd
  0
BLOCK
  5
24
330
23
100
AcDbEntity
  8
0
100
AcDbBlockBegin
  2
*Paper_Space0
 70
     0
 10
0.0
 20
0.0
 30
0.0
  3
*Paper_Space0
  1

  0
ENDBLK
  5
25
330
23
100
AcDbEntity
  8
0
100
AcDbBlockEnd
  0
BLOCK
  5
50
330
4F
100
AcDbEntity
  8
0
100
AcDbBlockBegin
  2
JZB_0001
 70
     0
 10
0.0
 20
0.0
 30
0.0
  3
JZB_0001
  1

  0
CIRCLE
  5
5B
330
4F
100
AcDbEntity
  8
NoLayerName_001
  6
Continuous
 62
     7
370
    50
100
AcDbCircle
 10
5.639996977895123
 20
5.640001081933292
 30
0.0
 40
4.7
  0
ARC
  5
5C
330
4F
100
AcDbEntity
  8
NoLayerName_001
  6
Continuous
 62
     7
370
    50
100
AcDbCircle
 10
5.639996977895123
 20
5.640001081933292
 30
0.0
 40
2.300000000000007
100
AcDbArc
 50
80.99493719645974
 51
99.00506280354027
  0
ARC
  5
5D
330
4F
100
AcDbEntity
  8
NoLayerName_001
  6
Continuous
 62
     7
370
    50
100
AcDbCircle
 10
5.639996977895123
 20
5.640001081933292
 30
0.0
 40
2.300000000000007
100
AcDbArc
 50
170.9949371964596
 51
189.0050628035404
  0
ARC
  5
5E
330
4F
100
AcDbEntity
  8
NoLayerName_001
  6
Continuous
 62
     7
370
    50
100
AcDbCircle
 10
5.639996977895123
 20
5.640001081933292
 30
0.0
 40
2.300000000000007
100
AcDbArc
 50
260.9949371964597
 51
279.0050628035403
  0
ARC
  5
5F
330
4F
100
AcDbEntity
  8
NoLayerName_001
  6
Continuous
 62
     7
370
    50
100
AcDbCircle
 10
5.639996977895123
 20
5.640001081933292
 30
0.0
 40
2.300000000000007
100
AcDbArc
 50
350.9949371964598
 51
9.005062803540186
  0
LINE
  5
60
330
4F
100
AcDbEntity
  8
NoLayerName_001
  6
Continuous
 62
     7
370
    50
100
AcDbLine
 10
6.465717382218529
 20
6.025239901025202
 30
0.0
 11
6.127151635561631
 21
6.19036944904191
 31
0.0
  0
LINE
  5
61
330
4F
100
AcDbEntity
  8
NoLayerName_001
  6
Continuous
 62
     7
370
    50
100
AcDbLine
 10
6.026079583400403
 20
6.417380995009921
 30
0.0
 11
6.127151635561631
 21
6.190369449041853
 31
0.0
  0
LINE
  5
62
330
4F
100
AcDbEntity
  8
NoLayerName_001
  6
Continuous
 62
     7
370
    50
100
AcDbLine
 10
6.026079583400403
 20
6.417380995009921
 30
0.0
 11
5.999996977895123
 21
7.911652463637736
 31
0.0
  0
LINE
  5
63
330
4F
100
AcDbEntity
  8
NoLayerName_001
  6
Continuous
 62
     7
370
    50
100
AcDbLine
 10
6.465717382218529
 20
6.025239901025202
 30
0.0
 11
7.911648359599653
 21
6.000001081933277
 31
0.0
  0
LINE
  5
64
330
4F
100
AcDbEntity
  8
NoLayerName_001
  6
Continuous
 62
     7
370
    50
100
AcDbLine
 10
5.253914372389843
 20
6.417380995009921
 30
0.0
 11
5.152842320228643
 21
6.190369449041853
 31
0.0
  0
LINE
  5
65
330
4F
100
AcDbEntity
  8
NoLayerName_001
  6
Continuous
 62
     7
370
    50
100
AcDbLine
 10
4.814276573571718
 20
6.025239901025202
 30
0.0
 11
5.152842320228643
 21
6.19036944904191
 31
0.0
  0
LINE
  5
66
330
4F
100
AcDbEntity
  8
NoLayerName_001
  6
Continuous
 62
     7
370
    50
100
AcDbLine
 10
4.814276573571718
 20
6.025239901025202
 30
0.0
 11
3.368345596190636
 21
6.000001081933277
 31
0.0
  0
LINE
  5
67
330
4F
100
AcDbEntity
  8
NoLayerName_001
  6
Continuous
 62
     7
370
    50
100
AcDbLine
 10
5.253914372389843
 20
6.417380995009921
 30
0.0
 11
5.279996977895124
 21
7.911652463637736
 31
0.0
  0
LINE
  5
68
330
4F
100
AcDbEntity
  8
NoLayerName_001
  6
Continuous
 62
     7
370
    50
100
AcDbLine
 10
4.814276573571718
 20
5.254762262841382
 30
0.0
 11
5.152842320228643
 21
5.089632714824646
 31
0.0
  0
LINE
  5
69
330
4F
100
AcDbEntity
  8
NoLayerName_001
  6
Continuous
 62
     7
370
    50
100
AcDbLine
 10
5.253914372389843
 20
4.862621168856549
 30
0.0
 11
5.152842320228643
 21
5.089632714824589
 31
0.0
  0
LINE
  5
6A
330
4F
100
AcDbEntity
  8
NoLayerName_001
  6
Continuous
 62
     7
370
    50
100
AcDbLine
 10
5.253914372389843
 20
4.862621168856549
 30
0.0
 11
5.279996977895124
 21
3.368349700228734
 31
0.0
  0
LINE
  5
6B
330
4F
100
AcDbEntity
  8
NoLayerName_001
  6
Continuous
 62
     7
370
    50
100
AcDbLine
 10
4.814276573571718
 20
5.254762262841382
 30
0.0
 11
3.368345596190636
 21
5.280001081933307
 31
0.0
  0
LINE
  5
6C
330
4F
100
AcDbEntity
  8
NoLayerName_001
  6
Continuous
 62
     7
370
    50
100
AcDbLine
 10
6.026079583400403
 20
4.862621168856549
 30
0.0
 11
6.127151635561603
 21
5.089632714824589
 31
0.0
  0
LINE
  5
6D
330
4F
100
AcDbEntity
  8
NoLayerName_001
  6
Continuous
 62
     7
370
    50
100
AcDbLine
 10
6.465717382218529
 20
5.254762262841382
 30
0.0
 11
6.127151635561603
 21
5.089632714824646
 31
0.0
  0
LINE
  5
6E
330
4F
100
AcDbEntity
  8
NoLayerName_001
  6
Continuous
 62
     7
370
    50
100
AcDbLine
 10
6.465717382218529
 20
5.254762262841382
 30
0.0
 11
7.911648359599653
 21
5.280001081933307
 31
0.0
  0
LINE
  5
6F
330
4F
100
AcDbEntity
  8
NoLayerName_001
  6
Continuous
 62
     7
370
    50
100
AcDbLine
 10
6.026079583400403
 20
4.862621168856549
 30
0.0
 11
5.999996977895123
 21
3.368349700228734
 31
0.0
  0
LINE
  5
70
330
4F
100
AcDbEntity
  8
NoLayerName_001
  6
CENTER
 62
     8
370
    25
100
AcDbLine
 10
5.639996977895123
 20
-0.000000906123887
 30
0.0
 11
5.639996977895123
 21
11.28000092493079
 31
0.0
  0
LINE
  5
71
330
4F
100
AcDbEntity
  8
NoLayerName_001
  6
CENTER
 62
     8
370
    25
100
AcDbLine
 10
0.0000002769097307
 20
5.640001081933292
 30
0.0
 11
11.27999447856988
 21
5.640001081933292
 31
0.0
  0
ENDBLK
  5
51
330
4F
100
AcDbEntity
  8
0
100
AcDbBlockEnd
  0
BLOCK
  5
53
330
52
100
AcDbEntity
  8
0
100
AcDbBlockBegin
  2
JZB_0002
 70
     0
 10
0.0
 20
0.0
 30
0.0
  3
JZB_0002
  1

  0
CIRCLE
  5
72
330
52
100
AcDbEntity
  8
NoLayerName_001
  6
Continuous
 62
     7
370
    50
100
AcDbCircle
 10
5.639996977895123
 20
5.640001081933292
 30
0.0
 40
4.7
  0
ARC
  5
73
330
52
100
AcDbEntity
  8
NoLayerName_001
  6
Continuous
 62
     7
370
    50
100
AcDbCircle
 10
5.639996977895123
 20
5.640001081933292
 30
0.0
 40
2.300000000000007
100
AcDbArc
 50
80.99493719645974
 51
99.00506280354027
  0
ARC
  5
74
330
52
100
AcDbEntity
  8
NoLayerName_001
  6
Continuous
 62
     7
370
    50
100
AcDbCircle
 10
5.639996977895123
 20
5.640001081933292
 30
0.0
 40
2.300000000000007
100
AcDbArc
 50
170.9949371964596
 51
189.0050628035404
  0
ARC
  5
75
330
52
100
AcDbEntity
  8
NoLayerName_001
  6
Continuous
 62
     7
370
    50
100
AcDbCircle
 10
5.639996977895123
 20
5.640001081933292
 30
0.0
 40
2.300000000000007
100
AcDbArc
 50
260.9949371964597
 51
279.0050628035403
  0
ARC
  5
76
330
52
100
AcDbEntity
  8
NoLayerName_001
  6
Continuous
 62
     7
370
    50
100
AcDbCircle
 10
5.639996977895123
 20
5.640001081933292
 30
0.0
 40
2.300000000000007
100
AcDbArc
 50
350.9949371964598
 51
9.005062803540186
  0
LINE
  5
77
330
52
100
AcDbEntity
  8
NoLayerName_001
  6
Continuous
 62
     7
370
    50
100
AcDbLine
 10
6.465717382218529
 20
6.025239901025202
 30
0.0
 11
6.127151635561631
 21
6.19036944904191
 31
0.0
  0
LINE
  5
78
330
52
100
AcDbEntity
  8
NoLayerName_001
  6
Continuous
 62
     7
370
    50
100
AcDbLine
 10
6.026079583400403
 20
6.417380995009921
 30
0.0
 11
6.127151635561631
 21
6.190369449041853
 31
0.0
  0
LINE
  5
79
330
52
100
AcDbEntity
  8
NoLayerName_001
  6
Continuous
 62
     7
370
    50
100
AcDbLine
 10
6.026079583400403
 20
6.417380995009921
 30
0.0
 11
5.999996977895123
 21
7.911652463637736
 31
0.0
  0
LINE
  5
7A
330
52
100
AcDbEntity
  8
NoLayerName_001
  6
Continuous
 62
     7
370
    50
100
AcDbLine
 10
6.465717382218529
 20
6.025239901025202
 30
0.0
 11
7.911648359599653
 21
6.000001081933277
 31
0.0
  0
LINE
  5
7B
330
52
100
AcDbEntity
  8
NoLayerName_001
  6
Continuous
 62
     7
370
    50
100
AcDbLine
 10
5.253914372389843
 20
6.417380995009921
 30
0.0
 11
5.152842320228643
 21
6.190369449041853
 31
0.0
  0
LINE
  5
7C
330
52
100
AcDbEntity
  8
NoLayerName_001
  6
Continuous
 62
     7
370
    50
100
AcDbLine
 10
4.814276573571718
 20
6.025239901025202
 30
0.0
 11
5.152842320228643
 21
6.19036944904191
 31
0.0
  0
LINE
  5
7D
330
52
100
AcDbEntity
  8
NoLayerName_001
  6
Continuous
 62
     7
370
    50
100
AcDbLine
 10
4.814276573571718
 20
6.025239901025202
 30
0.0
 11
3.368345596190636
 21
6.000001081933277
 31
0.0
  0
LINE
  5
7E
330
52
100
AcDbEntity
  8
NoLayerName_001
  6
Continuous
 62
     7
370
    50
100
AcDbLine
 10
5.253914372389843
 20
6.417380995009921
 30
0.0
 11
5.279996977895124
 21
7.911652463637736
 31
0.0
  0
LINE
  5
7F
330
52
100
AcDbEntity
  8
NoLayerName_001
  6
Continuous
 62
     7
370
    50
100
AcDbLine
 10
4.814276573571718
 20
5.254762262841382
 30
0.0
 11
5.152842320228643
 21
5.089632714824646
 31
0.0
  0
LINE
  5
80
330
52
100
AcDbEntity
  8
NoLayerName_001
  6
Continuous
 62
     7
370
    50
100
AcDbLine
 10
5.253914372389843
 20
4.862621168856549
 30
0.0
 11
5.152842320228643
 21
5.089632714824589
 31
0.0
  0
LINE
  5
81
330
52
100
AcDbEntity
  8
NoLayerName_001
  6
Continuous
 62
     7
370
    50
100
AcDbLine
 10
5.253914372389843
 20
4.862621168856549
 30
0.0
 11
5.279996977895124
 21
3.368349700228734
 31
0.0
  0
LINE
  5
82
330
52
100
AcDbEntity
  8
NoLayerName_001
  6
Continuous
 62
     7
370
    50
100
AcDbLine
 10
4.814276573571718
 20
5.254762262841382
 30
0.0
 11
3.368345596190636
 21
5.280001081933307
 31
0.0
  0
LINE
  5
83
330
52
100
AcDbEntity
  8
NoLayerName_001
  6
Continuous
 62
     7
370
    50
100
AcDbLine
 10
6.026079583400403
 20
4.862621168856549
 30
0.0
 11
6.127151635561603
 21
5.089632714824589
 31
0.0
  0
LINE
  5
84
330
52
100
AcDbEntity
  8
NoLayerName_001
  6
Continuous
 62
     7
370
    50
100
AcDbLine
 10
6.465717382218529
 20
5.254762262841382
 30
0.0
 11
6.127151635561603
 21
5.089632714824646
 31
0.0
  0
LINE
  5
85
330
52
100
AcDbEntity
  8
NoLayerName_001
  6
Continuous
 62
     7
370
    50
100
AcDbLine
 10
6.465717382218529
 20
5.254762262841382
 30
0.0
 11
7.911648359599653
 21
5.280001081933307
 31
0.0
  0
LINE
  5
86
330
52
100
AcDbEntity
  8
NoLayerName_001
  6
Continuous
 62
     7
370
    50
100
AcDbLine
 10
6.026079583400403
 20
4.862621168856549
 30
0.0
 11
5.999996977895123
 21
3.368349700228734
 31
0.0
  0
LINE
  5
87
330
52
100
AcDbEntity
  8
NoLayerName_001
  6
CENTER
 62
     8
370
    25
100
AcDbLine
 10
5.639996977895123
 20
-0.000000906123887
 30
0.0
 11
5.639996977895123
 21
11.28000092493079
 31
0.0
  0
LINE
  5
88
330
52
100
AcDbEntity
  8
NoLayerName_001
  6
CENTER
 62
     8
370
    25
100
AcDbLine
 10
0.0000002769097307
 20
5.640001081933292
 30
0.0
 11
11.27999447856988
 21
5.640001081933292
 31
0.0
  0
ENDBLK
  5
54
330
52
100
AcDbEntity
  8
0
100
AcDbBlockEnd
  0
BLOCK
  5
56
330
55
100
AcDbEntity
  8
0
100
AcDbBlockBegin
  2
JZB_0003
 70
     0
 10
0.0
 20
0.0
 30
0.0
  3
JZB_0003
  1

  0
CIRCLE
  5
89
330
55
100
AcDbEntity
  8
NoLayerName_001
  6
Continuous
 62
     7
370
    50
100
AcDbCircle
 10
5.639981719106061
 20
5.640001081933292
 30
0.0
 40
4.7
  0
ARC
  5
8A
330
55
100
AcDbEntity
  8
NoLayerName_001
  6
Continuous
 62
     7
370
    50
100
AcDbCircle
 10
5.639981719106061
 20
5.640001081933292
 30
0.0
 40
2.300000000000007
100
AcDbArc
 50
80.99493719645974
 51
99.00506280354027
  0
ARC
  5
8B
330
55
100
AcDbEntity
  8
NoLayerName_001
  6
Continuous
 62
     7
370
    50
100
AcDbCircle
 10
5.639981719106061
 20
5.640001081933292
 30
0.0
 40
2.300000000000007
100
AcDbArc
 50
170.9949371964596
 51
189.0050628035404
  0
ARC
  5
8C
330
55
100
AcDbEntity
  8
NoLayerName_001
  6
Continuous
 62
     7
370
    50
100
AcDbCircle
 10
5.639981719106061
 20
5.640001081933292
 30
0.0
 40
2.300000000000007
100
AcDbArc
 50
260.9949371964597
 51
279.0050628035403
  0
ARC
  5
8D
330
55
100
AcDbEntity
  8
NoLayerName_001
  6
Continuous
 62
     7
370
    50
100
AcDbCircle
 10
5.639981719106061
 20
5.640001081933292
 30
0.0
 40
2.300000000000007
100
AcDbArc
 50
350.9949371964598
 51
9.005062803540186
  0
LINE
  5
8E
330
55
100
AcDbEntity
  8
NoLayerName_001
  6
Continuous
 62
     7
370
    50
100
AcDbLine
 10
6.46570212342948
 20
6.025239901025202
 30
0.0
 11
6.127136376772583
 21
6.19036944904191
 31
0.0
  0
LINE
  5
8F
330
55
100
AcDbEntity
  8
NoLayerName_001
  6
Continuous
 62
     7
370
    50
100
AcDbLine
 10
6.026064324611355
 20
6.417380995009921
 30
0.0
 11
6.127136376772583
 21
6.190369449041853
 31
0.0
  0
LINE
  5
90
330
55
100
AcDbEntity
  8
NoLayerName_001
  6
Continuous
 62
     7
370
    50
100
AcDbLine
 10
6.026064324611355
 20
6.417380995009921
 30
0.0
 11
5.999981719106074
 21
7.911652463637736
 31
0.0
  0
LINE
  5
91
330
55
100
AcDbEntity
  8
NoLayerName_001
  6
Continuous
 62
     7
370
    50
100
AcDbLine
 10
6.46570212342948
 20
6.025239901025202
 30
0.0
 11
7.911633100810604
 21
6.000001081933277
 31
0.0
  0
LINE
  5
92
330
55
100
AcDbEntity
  8
NoLayerName_001
  6
Continuous
 62
     7
370
    50
100
AcDbLine
 10
5.253899113600767
 20
6.417380995009921
 30
0.0
 11
5.152827061439567
 21
6.190369449041853
 31
0.0
  0
LINE
  5
93
330
55
100
AcDbEntity
  8
NoLayerName_001
  6
Continuous
 62
     7
370
    50
100
AcDbLine
 10
4.814261314782641
 20
6.025239901025202
 30
0.0
 11
5.152827061439567
 21
6.19036944904191
 31
0.0
  0
LINE
  5
94
330
55
100
AcDbEntity
  8
NoLayerName_001
  6
Continuous
 62
     7
370
    50
100
AcDbLine
 10
4.814261314782641
 20
6.025239901025202
 30
0.0
 11
3.368330337401559
 21
6.000001081933277
 31
0.0
  0
LINE
  5
95
330
55
100
AcDbEntity
  8
NoLayerName_001
  6
Continuous
 62
     7
370
    50
100
AcDbLine
 10
5.253899113600767
 20
6.417380995009921
 30
0.0
 11
5.279981719106047
 21
7.911652463637736
 31
0.0
  0
LINE
  5
96
330
55
100
AcDbEntity
  8
NoLayerName_001
  6
Continuous
 62
     7
370
    50
100
AcDbLine
 10
4.814261314782641
 20
5.254762262841382
 30
0.0
 11
5.152827061439567
 21
5.089632714824646
 31
0.0
  0
LINE
  5
97
330
55
100
AcDbEntity
  8
NoLayerName_001
  6
Continuous
 62
     7
370
    50
100
AcDbLine
 10
5.253899113600767
 20
4.862621168856549
 30
0.0
 11
5.152827061439567
 21
5.089632714824589
 31
0.0
  0
LINE
  5
98
330
55
100
AcDbEntity
  8
NoLayerName_001
  6
Continuous
 62
     7
370
    50
100
AcDbLine
 10
5.253899113600767
 20
4.862621168856549
 30
0.0
 11
5.279981719106047
 21
3.368349700228734
 31
0.0
  0
LINE
  5
99
330
55
100
AcDbEntity
  8
NoLayerName_001
  6
Continuous
 62
     7
370
    50
100
AcDbLine
 10
4.814261314782641
 20
5.254762262841382
 30
0.0
 11
3.368330337401559
 21
5.280001081933307
 31
0.0
  0
LINE
  5
9A
330
55
100
AcDbEntity
  8
NoLayerName_001
  6
Continuous
 62
     7
370
    50
100
AcDbLine
 10
6.026064324611355
 20
4.862621168856549
 30
0.0
 11
6.127136376772555
 21
5.089632714824589
 31
0.0
  0
LINE
  5
9B
330
55
100
AcDbEntity
  8
NoLayerName_001
  6
Continuous
 62
     7
370
    50
100
AcDbLine
 10
6.46570212342948
 20
5.254762262841382
 30
0.0
 11
6.127136376772555
 21
5.089632714824646
 31
0.0
  0
LINE
  5
9C
330
55
100
AcDbEntity
  8
NoLayerName_001
  6
Continuous
 62
     7
370
    50
100
AcDbLine
 10
6.46570212342948
 20
5.254762262841382
 30
0.0
 11
7.911633100810604
 21
5.280001081933307
 31
0.0
  0
LINE
  5
9D
330
55
100
AcDbEntity
  8
NoLayerName_001
  6
Continuous
 62
     7
370
    50
100
AcDbLine
 10
6.026064324611355
 20
4.862621168856549
 30
0.0
 11
5.999981719106074
 21
3.368349700228734
 31
0.0
  0
LINE
  5
9E
330
55
100
AcDbEntity
  8
NoLayerName_001
  6
CENTER
 62
     8
370
    25
100
AcDbLine
 10
5.639981719106061
 20
-0.000000906123887
 30
0.0
 11
5.639981719106061
 21
11.28000092493079
 31
0.0
  0
LINE
  5
9F
330
55
100
AcDbEntity
  8
NoLayerName_001
  6
CENTER
 62
     8
370
    25
100
AcDbLine
 10
-0.0000149818793034
 20
5.640001081933292
 30
0.0
 11
11.27997921978084
 21
5.640001081933292
 31
0.0
  0
ENDBLK
  5
57
330
55
100
AcDbEntity
  8
0
100
AcDbBlockEnd
  0
BLOCK
  5
59
330
58
100
AcDbEntity
  8
0
100
AcDbBlockBegin
  2
JZB_0004
 70
     0
 10
0.0
 20
0.0
 30
0.0
  3
JZB_0004
  1

  0
CIRCLE
  5
A0
330
58
100
AcDbEntity
  8
NoLayerName_001
  6
Continuous
 62
     7
370
    50
100
AcDbCircle
 10
5.639981719106061
 20
5.640001081933292
 30
0.0
 40
4.7
  0
ARC
  5
A1
330
58
100
AcDbEntity
  8
NoLayerName_001
  6
Continuous
 62
     7
370
    50
100
AcDbCircle
 10
5.639981719106061
 20
5.640001081933292
 30
0.0
 40
2.300000000000007
100
AcDbArc
 50
80.99493719645974
 51
99.00506280354027
  0
ARC
  5
A2
330
58
100
AcDbEntity
  8
NoLayerName_001
  6
Continuous
 62
     7
370
    50
100
AcDbCircle
 10
5.639981719106061
 20
5.640001081933292
 30
0.0
 40
2.300000000000007
100
AcDbArc
 50
170.9949371964596
 51
189.0050628035404
  0
ARC
  5
A3
330
58
100
AcDbEntity
  8
NoLayerName_001
  6
Continuous
 62
     7
370
    50
100
AcDbCircle
 10
5.639981719106061
 20
5.640001081933292
 30
0.0
 40
2.300000000000007
100
AcDbArc
 50
260.9949371964597
 51
279.0050628035403
  0
ARC
  5
A4
330
58
100
AcDbEntity
  8
NoLayerName_001
  6
Continuous
 62
     7
370
    50
100
AcDbCircle
 10
5.639981719106061
 20
5.640001081933292
 30
0.0
 40
2.300000000000007
100
AcDbArc
 50
350.9949371964598
 51
9.005062803540186
  0
LINE
  5
A5
330
58
100
AcDbEntity
  8
NoLayerName_001
  6
Continuous
 62
     7
370
    50
100
AcDbLine
 10
6.46570212342948
 20
6.025239901025202
 30
0.0
 11
6.127136376772583
 21
6.19036944904191
 31
0.0
  0
LINE
  5
A6
330
58
100
AcDbEntity
  8
NoLayerName_001
  6
Continuous
 62
     7
370
    50
100
AcDbLine
 10
6.026064324611355
 20
6.417380995009921
 30
0.0
 11
6.127136376772583
 21
6.190369449041853
 31
0.0
  0
LINE
  5
A7
330
58
100
AcDbEntity
  8
NoLayerName_001
  6
Continuous
 62
     7
370
    50
100
AcDbLine
 10
6.026064324611355
 20
6.417380995009921
 30
0.0
 11
5.999981719106074
 21
7.911652463637736
 31
0.0
  0
LINE
  5
A8
330
58
100
AcDbEntity
  8
NoLayerName_001
  6
Continuous
 62
     7
370
    50
100
AcDbLine
 10
6.46570212342948
 20
6.025239901025202
 30
0.0
 11
7.911633100810604
 21
6.000001081933277
 31
0.0
  0
LINE
  5
A9
330
58
100
AcDbEntity
  8
NoLayerName_001
  6
Continuous
 62
     7
370
    50
100
AcDbLine
 10
5.253899113600767
 20
6.417380995009921
 30
0.0
 11
5.152827061439567
 21
6.190369449041853
 31
0.0
  0
LINE
  5
AA
330
58
100
AcDbEntity
  8
NoLayerName_001
  6
Continuous
 62
     7
370
    50
100
AcDbLine
 10
4.814261314782641
 20
6.025239901025202
 30
0.0
 11
5.152827061439567
 21
6.19036944904191
 31
0.0
  0
LINE
  5
AB
330
58
100
AcDbEntity
  8
NoLayerName_001
  6
Continuous
 62
     7
370
    50
100
AcDbLine
 10
4.814261314782641
 20
6.025239901025202
 30
0.0
 11
3.368330337401559
 21
6.000001081933277
 31
0.0
  0
LINE
  5
AC
330
58
100
AcDbEntity
  8
NoLayerName_001
  6
Continuous
 62
     7
370
    50
100
AcDbLine
 10
5.253899113600767
 20
6.417380995009921
 30
0.0
 11
5.279981719106047
 21
7.911652463637736
 31
0.0
  0
LINE
  5
AD
330
58
100
AcDbEntity
  8
NoLayerName_001
  6
Continuous
 62
     7
370
    50
100
AcDbLine
 10
4.814261314782641
 20
5.254762262841382
 30
0.0
 11
5.152827061439567
 21
5.089632714824646
 31
0.0
  0
LINE
  5
AE
330
58
100
AcDbEntity
  8
NoLayerName_001
  6
Continuous
 62
     7
370
    50
100
AcDbLine
 10
5.253899113600767
 20
4.862621168856549
 30
0.0
 11
5.152827061439567
 21
5.089632714824589
 31
0.0
  0
LINE
  5
AF
330
58
100
AcDbEntity
  8
NoLayerName_001
  6
Continuous
 62
     7
370
    50
100
AcDbLine
 10
5.253899113600767
 20
4.862621168856549
 30
0.0
 11
5.279981719106047
 21
3.368349700228734
 31
0.0
  0
LINE
  5
B0
330
58
100
AcDbEntity
  8
NoLayerName_001
  6
Continuous
 62
     7
370
    50
100
AcDbLine
 10
4.814261314782641
 20
5.254762262841382
 30
0.0
 11
3.368330337401559
 21
5.280001081933307
 31
0.0
  0
LINE
  5
B1
330
58
100
AcDbEntity
  8
NoLayerName_001
  6
Continuous
 62
     7
370
    50
100
AcDbLine
 10
6.026064324611355
 20
4.862621168856549
 30
0.0
 11
6.127136376772555
 21
5.089632714824589
 31
0.0
  0
LINE
  5
B2
330
58
100
AcDbEntity
  8
NoLayerName_001
  6
Continuous
 62
     7
370
    50
100
AcDbLine
 10
6.46570212342948
 20
5.254762262841382
 30
0.0
 11
6.127136376772555
 21
5.089632714824646
 31
0.0
  0
LINE
  5
B3
330
58
100
AcDbEntity
  8
NoLayerName_001
  6
Continuous
 62
     7
370
    50
100
AcDbLine
 10
6.46570212342948
 20
5.254762262841382
 30
0.0
 11
7.911633100810604
 21
5.280001081933307
 31
0.0
  0
LINE
  5
B4
330
58
100
AcDbEntity
  8
NoLayerName_001
  6
Continuous
 62
     7
370
    50
100
AcDbLine
 10
6.026064324611355
 20
4.862621168856549
 30
0.0
 11
5.999981719106074
 21
3.368349700228734
 31
0.0
  0
LINE
  5
B5
330
58
100
AcDbEntity
  8
NoLayerName_001
  6
CENTER
 62
     8
370
    25
100
AcDbLine
 10
5.639981719106061
 20
-0.000000906123887
 30
0.0
 11
5.639981719106061
 21
11.28000092493079
 31
0.0
  0
LINE
  5
B6
330
58
100
AcDbEntity
  8
NoLayerName_001
  6
CENTER
 62
     8
370
    25
100
AcDbLine
 10
-0.0000149818793034
 20
5.640001081933292
 30
0.0
 11
11.27997921978084
 21
5.640001081933292
 31
0.0
  0
ENDBLK
  5
5A
330
58
100
AcDbEntity
  8
0
100
AcDbBlockEnd
  0
ENDSEC
  0
SECTION
  2
ENTITIES
  0
LINE
  5
B7
330
1F
100
AcDbEntity
  8
NoLayerName_003
  6
CENTER
 62
    30
370
    25
100
AcDbLine
 10
191.0529761038717
 20
240.331176851786
 30
0.0
 11
191.0529761038717
 21
194.331175931786
 31
0.0
  0
LINE
  5
B8
330
1F
100
AcDbEntity
  8
NoLayerName_003
  6
CENTER
 62
    30
370
    25
100
AcDbLine
 10
191.0529761038717
 20
434.3617301569658
 30
0.0
 11
191.0529761038717
 21
301.2637848845745
 31
0.0
  0
LINE
  5
B9
330
1F
100
AcDbEntity
  8
NoLayerName_003
  6
CENTER
 62
    30
370
    25
100
AcDbLine
 10
96.55297421387166
 20
367.9848802323239
 30
0.0
 11
286.5529780138717
 21
367.9848802323239
 31
0.0
  0
LINE
  5
BA
330
1F
100
AcDbEntity
  8
NoLayerName_003
  6
CENTER
 62
    30
370
    25
100
AcDbLine
 10
214.8029765638717
 20
363.9848802323239
 30
0.0
 11
214.8029765638717
 21
371.9848802323239
 31
0.0
  0
LINE
  5
BB
330
1F
100
AcDbEntity
  8
NoLayerName_003
  6
CENTER
 62
    30
370
    25
100
AcDbLine
 10
140.0529751838717
 20
397.9848808323239
 30
0.0
 11
150.0529751838717
 21
397.9848808323239
 31
0.0
  0
LINE
  5
BC
330
1F
100
AcDbEntity
  8
NoLayerName_003
  6
CENTER
 62
    30
370
    25
100
AcDbLine
 10
145.0529751838717
 20
392.9848808323239
 30
0.0
 11
145.0529751838717
 21
402.9848808323239
 31
0.0
  0
LINE
  5
BD
330
1F
100
AcDbEntity
  8
NoLayerName_003
  6
CENTER
 62
    30
370
    25
100
AcDbLine
 10
140.0529751838717
 20
337.9848796323239
 30
0.0
 11
150.0529751838717
 21
337.9848796323239
 31
0.0
  0
LINE
  5
BE
330
1F
100
AcDbEntity
  8
NoLayerName_003
  6
CENTER
 62
    30
370
    25
100
AcDbLine
 10
145.0529751838717
 20
342.9848796323239
 30
0.0
 11
145.0529751838717
 21
332.9848796323239
 31
0.0
  0
LINE
  5
BF
330
1F
100
AcDbEntity
  8
NoLayerName_003
  6
CENTER
 62
    30
370
    25
100
AcDbLine
 10
168.0529756438717
 20
300.9637848845746
 30
0.0
 11
168.0529756438717
 21
432.3899724796448
 31
0.0
  0
LINE
  5
C0
330
1F
100
AcDbEntity
  8
NoLayerName_003
  6
CENTER
 62
    30
370
    25
100
AcDbLine
 10
167.3029756438717
 20
359.9848802323239
 30
0.0
 11
167.3029756438717
 21
374.9848802323239
 31
0.0
  0
LINE
  5
C1
330
1F
100
AcDbEntity
  8
NoLayerName_003
  6
CENTER
 62
    30
370
    25
100
AcDbLine
 10
161.0529755038717
 20
233.4311760617861
 30
0.0
 11
161.0529755038717
 21
226.9311759317861
 31
0.0
  0
LINE
  5
C2
330
1F
100
AcDbEntity
  8
NoLayerName_003
  6
CENTER
 62
    30
370
    25
100
AcDbLine
 10
157.3863087638717
 20
230.0978426617861
 30
0.0
 11
164.5529755738717
 21
230.0978426617861
 31
0.0
  0
LINE
  5
C3
330
1F
100
AcDbEntity
  8
NoLayerName_003
  6
CENTER
 62
    30
370
    25
100
AcDbLine
 10
324.1196437338717
 20
367.9848802323239
 30
0.0
 11
370.1196446538717
 21
367.9848802323239
 31
0.0
  0
LINE
  5
C4
330
1F
100
AcDbEntity
  8
NoLayerName_001
  6
Continuous
 62
     4
370
    50
100
AcDbLine
 10
103.5529742838717
 20
423.9848802323239
 30
0.0
 11
103.5529742838717
 21
311.9848802323239
 31
0.0
  0
LINE
  5
C5
330
1F
100
AcDbEntity
  8
NoLayerName_001
  6
Continuous
 62
     4
370
    50
100
AcDbLine
 10
103.5529742838717
 20
311.9848802323239
 30
0.0
 11
278.5529779238717
 21
311.9848802323239
 31
0.0
  0
LINE
  5
C6
330
1F
100
AcDbEntity
  8
NoLayerName_001
  6
Continuous
 62
     4
370
    50
100
AcDbLine
 10
278.5529779238717
 20
311.9848802323239
 30
0.0
 11
278.5529779238717
 21
423.9848802323239
 31
0.0
  0
LINE
  5
C7
330
1F
100
AcDbEntity
  8
NoLayerName_001
  6
Continuous
 62
     4
370
    50
100
AcDbLine
 10
110.0529744838717
 20
420.4848802323239
 30
0.0
 11
110.0529744838717
 21
423.9848802323239
 31
0.0
  0
LINE
  5
C8
330
1F
100
AcDbEntity
  8
NoLayerName_001
  6
Continuous
 62
     4
370
    50
100
AcDbLine
 10
120.0529746838717
 20
420.4848802323239
 30
0.0
 11
120.0529746838717
 21
423.9848802323239
 31
0.0
  0
ARC
  5
C9
330
1F
100
AcDbEntity
  8
NoLayerName_001
  6
Continuous
 62
     4
370
    50
100
AcDbCircle
 10
115.0529745838717
 20
421.4848813023239
 30
0.0
 40
4.000000079999999
100
AcDbArc
 50
38.68216690223896
 51
141.317833097761
  0
ARC
  5
CA
330
1F
100
AcDbEntity
  8
NoLayerName_001
  6
Continuous
 62
     4
370
    50
100
AcDbCircle
 10
115.0529745838717
 20
314.3182124923239
 30
0.0
 40
4.00000008000001
100
AcDbArc
 50
215.6853149611541
 51
324.3146850388459
  0
ARC
  5
CB
330
1F
100
AcDbEntity
  8
NoLayerName_001
  6
Continuous
 62
     4
370
    50
100
AcDbCircle
 10
267.0529776238716
 20
314.3182124923239
 30
0.0
 40
4.00000007999999
100
AcDbArc
 50
215.6853149611545
 51
324.3146850388455
  0
ARC
  5
CC
330
1F
100
AcDbEntity
  8
NoLayerName_001
  6
Continuous
 62
     4
370
    50
100
AcDbCircle
 10
278.8029779238717
 20
367.9848802323239
 30
0.0
 40
0.25
100
AcDbArc
 50
90.0
 51
270.0
  0
ARC
  5
CD
330
1F
100
AcDbEntity
  8
NoLayerName_001
  6
Continuous
 62
     4
370
    50
100
AcDbCircle
 10
103.3029742838717
 20
367.9848802323239
 30
0.0
 40
0.25
100
AcDbArc
 50
270.0
 51
90.00000000000001
  0
ARC
  5
CE
330
1F
100
AcDbEntity
  8
NoLayerName_001
  6
Continuous
 62
     4
370
    50
100
AcDbCircle
 10
166.5529756438717
 20
367.9848802323239
 30
0.0
 40
2.5
100
AcDbArc
 50
90.0
 51
270.0
  0
LINE
  5
CF
330
1F
100
AcDbEntity
  8
NoLayerName_001
  6
Continuous
 62
     4
370
    50
100
AcDbLine
 10
214.0529765638717
 20
370.4848802323239
 30
0.0
 11
215.5529765638717
 21
370.4848802323239
 31
0.0
  0
LINE
  5
D0
330
1F
100
AcDbEntity
  8
NoLayerName_001
  6
Continuous
 62
     4
370
    50
100
AcDbLine
 10
214.0529765638717
 20
365.4848802323239
 30
0.0
 11
215.5529765638717
 21
365.4848802323239
 31
0.0
  0
ARC
  5
D1
330
1F
100
AcDbEntity
  8
NoLayerName_001
  6
Continuous
 62
     4
370
    50
100
AcDbCircle
 10
215.5529765638717
 20
367.9848802323239
 30
0.0
 40
2.5
100
AcDbArc
 50
270.0
 51
90.00000000000001
  0
ARC
  5
D2
330
1F
100
AcDbEntity
  8
NoLayerName_001
  6
Continuous
 62
     4
370
    50
100
AcDbCircle
 10
214.0529765638717
 20
367.9848802323239
 30
0.0
 40
2.5
100
AcDbArc
 50
90.0
 51
270.0
  0
LINE
  5
D3
330
1F
100
AcDbEntity
  8
NoLayerName_005
  6
DOTSX
 62
     7
370
    25
100
AcDbLine
 10
177.0529761038717
 20
308.9848802323239
 30
0.0
 11
205.0529761038717
 21
308.9848802323239
 31
0.0
  0
LINE
  5
D4
330
1F
100
AcDbEntity
  8
NoLayerName_005
  6
DOTSX
 62
     7
370
    25
100
AcDbLine
 10
201.0529761038717
 20
311.9848802323239
 30
0.0
 11
201.0529761038717
 21
308.9848802323239
 31
0.0
  0
LINE
  5
D5
330
1F
100
AcDbEntity
  8
NoLayerName_005
  6
DOTSX
 62
     7
370
    25
100
AcDbLine
 10
181.0529761038717
 20
311.9848802323239
 30
0.0
 11
181.0529761038717
 21
308.9848802323239
 31
0.0
  0
LINE
  5
D6
330
1F
100
AcDbEntity
  8
NoLayerName_005
  6
DOTSX
 62
     7
370
    25
100
AcDbLine
 10
177.0529761038717
 20
426.9848802323239
 30
0.0
 11
205.0529761038717
 21
426.9848802323239
 31
0.0
  0
LINE
  5
D7
330
1F
100
AcDbEntity
  8
NoLayerName_005
  6
DOTSX
 62
     7
370
    25
100
AcDbLine
 10
201.0529761038717
 20
423.9848802323239
 30
0.0
 11
201.0529761038717
 21
426.9848802323239
 31
0.0
  0
LINE
  5
D8
330
1F
100
AcDbEntity
  8
NoLayerName_005
  6
DOTSX
 62
     7
370
    25
100
AcDbLine
 10
181.0529761038717
 20
423.9848802323239
 30
0.0
 11
181.0529761038717
 21
426.9848802323239
 31
0.0
  0
LINE
  5
D9
330
1F
100
AcDbEntity
  8
NoLayerName_005
  6
DOTSX
 62
     7
370
    25
100
AcDbLine
 10
182.9433643070739
 20
309.9848802323239
 30
0.0
 11
199.1625879006695
 21
309.9848802323239
 31
0.0
  0
LINE
  5
DA
330
1F
100
AcDbEntity
  8
NoLayerName_005
  6
DOTSX
 62
     7
370
    25
100
AcDbLine
 10
182.4582930570012
 20
310.3636124198057
 30
0.0
 11
182.0529761038717
 21
311.9848802323239
 31
0.0
  0
LINE
  5
DB
330
1F
100
AcDbEntity
  8
NoLayerName_005
  6
DOTSX
 62
     7
370
    25
100
AcDbLine
 10
199.6476591507422
 20
310.3636124198057
 30
0.0
 11
200.0529761038717
 21
311.9848802323239
 31
0.0
  0
ARC
  5
DC
330
1F
100
AcDbEntity
  8
NoLayerName_005
  6
DOTSX
 62
     7
370
    25
100
AcDbCircle
 10
199.1625879006695
 20
310.4848802323239
 30
0.0
 40
0.5
100
AcDbArc
 50
270.0
 51
345.9637565320735
  0
ARC
  5
DD
330
1F
100
AcDbEntity
  8
NoLayerName_005
  6
DOTSX
 62
     7
370
    25
100
AcDbCircle
 10
182.9433643070739
 20
310.4848802323239
 30
0.0
 40
0.5
100
AcDbArc
 50
194.0362434679265
 51
270.0
  0
LINE
  5
DE
330
1F
100
AcDbEntity
  8
NoLayerName_005
  6
DOTSX
 62
     7
370
    25
100
AcDbLine
 10
182.9433643070739
 20
425.9848802323239
 30
0.0
 11
199.1625879006695
 21
425.9848802323239
 31
0.0
  0
LINE
  5
DF
330
1F
100
AcDbEntity
  8
NoLayerName_005
  6
DOTSX
 62
     7
370
    25
100
AcDbLine
 10
182.4582930570012
 20
425.606148044842
 30
0.0
 11
182.0529761038717
 21
423.9848802323239
 31
0.0
  0
LINE
  5
E0
330
1F
100
AcDbEntity
  8
NoLayerName_005
  6
DOTSX
 62
     7
370
    25
100
AcDbLine
 10
199.6476591507421
 20
425.606148044842
 30
0.0
 11
200.0529761038717
 21
423.9848802323239
 31
0.0
  0
ARC
  5
E1
330
1F
100
AcDbEntity
  8
NoLayerName_005
  6
DOTSX
 62
     7
370
    25
100
AcDbCircle
 10
199.1625879006695
 20
425.4848802323239
 30
0.0
 40
0.5
100
AcDbArc
 50
14.0362434679265
 51
90.00000000000001
  0
ARC
  5
E2
330
1F
100
AcDbEntity
  8
NoLayerName_005
  6
DOTSX
 62
     7
370
    25
100
AcDbCircle
 10
182.9433643070739
 20
425.4848802323239
 30
0.0
 40
0.5
100
AcDbArc
 50
90.00000000000001
 51
165.9637565320735
  0
CIRCLE
  5
E3
330
1F
100
AcDbEntity
  8
NoLayerName_001
  6
Continuous
 62
     4
370
    50
100
AcDbCircle
 10
237.0529770238717
 20
337.9848796323239
 30
0.0
 40
2.000000039999981
  0
CIRCLE
  5
E4
330
1F
100
AcDbEntity
  8
NoLayerName_001
  6
Continuous
 62
     4
370
    50
100
AcDbCircle
 10
237.0529770238717
 20
337.9848796323239
 30
0.0
 40
1.000000019999991
  0
CIRCLE
  5
E5
330
1F
100
AcDbEntity
  8
NoLayerName_004
  6
Continuous
 62
     3
370
    25
100
AcDbCircle
 10
115.0529745838717
 20
420.4848802323239
 30
0.0
 40
2.000000040000005
  0
CIRCLE
  5
E6
330
1F
100
AcDbEntity
  8
NoLayerName_004
  6
Continuous
 62
     3
370
    25
100
AcDbCircle
 10
115.0529745838717
 20
420.4848802323239
 30
0.0
 40
1.333333359999995
  0
LINE
  5
E7
330
1F
100
AcDbEntity
  8
NoLayerName_005
  6
DOTSX
 62
     7
370
    25
100
AcDbLine
 10
281.5529779238717
 20
353.9848802323239
 30
0.0
 11
281.5529779238717
 21
381.9848802323239
 31
0.0
  0
LINE
  5
E8
330
1F
100
AcDbEntity
  8
NoLayerName_001
  6
DOTSX
 62
     7
370
    25
100
AcDbLine
 10
223.5529767538717
 20
423.9848802323239
 30
0.0
 11
223.5529767538717
 21
427.7848802323239
 31
0.0
  0
LINE
  5
E9
330
1F
100
AcDbEntity
  8
NoLayerName_005
  6
DOTSX
 62
     7
370
    25
100
AcDbLine
 10
278.5529779238717
 20
377.9848802323239
 30
0.0
 11
281.5529779238717
 21
377.9848802323239
 31
0.0
  0
LINE
  5
EA
330
1F
100
AcDbEntity
  8
NoLayerName_005
  6
DOTSX
 62
     7
370
    25
100
AcDbLine
 10
278.5529779238717
 20
357.9848802323239
 30
0.0
 11
281.5529779238717
 21
357.9848802323239
 31
0.0
  0
LINE
  5
EB
330
1F
100
AcDbEntity
  8
NoLayerName_005
  6
DOTSX
 62
     7
370
    25
100
AcDbLine
 10
280.5529779238717
 20
359.8752684355261
 30
0.0
 11
280.5529779238717
 21
376.0944920291217
 31
0.0
  0
LINE
  5
EC
330
1F
100
AcDbEntity
  8
NoLayerName_005
  6
DOTSX
 62
     7
370
    25
100
AcDbLine
 10
280.1742457363898
 20
359.3901971854534
 30
0.0
 11
278.5529779238717
 21
358.9848802323239
 31
0.0
  0
LINE
  5
ED
330
1F
100
AcDbEntity
  8
NoLayerName_005
  6
DOTSX
 62
     7
370
    25
100
AcDbLine
 10
280.1742457363898
 20
376.5795632791943
 30
0.0
 11
278.5529779238717
 21
376.9848802323239
 31
0.0
  0
LINE
  5
EE
330
1F
100
AcDbEntity
  8
NoLayerName_005
  6
DOTSX
 62
     7
370
    25
100
AcDbLine
 10
205.0529761038717
 20
426.9848802323239
 30
0.0
 11
205.0529761038717
 21
427.7848802323239
 31
0.0
  0
ARC
  5
EF
330
1F
100
AcDbEntity
  8
NoLayerName_005
  6
DOTSX
 62
     7
370
    25
100
AcDbCircle
 10
280.0529779238717
 20
376.0944920291216
 30
0.0
 40
0.5
100
AcDbArc
 50
0.0
 51
75.96375653207352
  0
LINE
  5
F0
330
1F
100
AcDbEntity
  8
NoLayerName_005
  6
DOTSX
 62
     7
370
    25
100
AcDbLine
 10
177.0529761038717
 20
426.9848802323239
 30
0.0
 11
177.0529761038717
 21
427.7848802323239
 31
0.0
  0
ARC
  5
F1
330
1F
100
AcDbEntity
  8
NoLayerName_005
  6
DOTSX
 62
     7
370
    25
100
AcDbCircle
 10
280.0529779238717
 20
359.8752684355261
 30
0.0
 40
0.5
100
AcDbArc
 50
284.0362434679265
 51
359.9999999999999
  0
LINE
  5
F2
330
1F
100
AcDbEntity
  8
NoLayerName_005
  6
DOTSX
 62
     7
370
    25
100
AcDbLine
 10
281.5529779238717
 20
381.9848802323239
 30
0.0
 11
282.3529779238717
 21
381.9848802323239
 31
0.0
  0
LINE
  5
F3
330
1F
100
AcDbEntity
  8
NoLayerName_005
  6
DOTSX
 62
     7
370
    25
100
AcDbLine
 10
281.5529779238717
 20
353.9848802323239
 30
0.0
 11
282.3529779238717
 21
353.9848802323239
 31
0.0
  0
LINE
  5
F4
330
1F
100
AcDbEntity
  8
NoLayerName_001
  6
Continuous
 62
     4
370
    50
100
AcDbLine
 10
280.3529779238717
 20
308.1848802323238
 30
0.0
 11
101.7529742838717
 21
308.1848802323238
 31
0.0
  0
LINE
  5
F5
330
1F
100
AcDbEntity
  8
NoLayerName_005
  6
DOTSX
 62
     7
370
    25
100
AcDbLine
 10
100.5529742838717
 20
353.9848802323239
 30
0.0
 11
100.5529742838717
 21
381.9848802323239
 31
0.0
  0
LINE
  5
F6
330
1F
100
AcDbEntity
  8
NoLayerName_005
  6
DOTSX
 62
     7
370
    25
100
AcDbLine
 10
103.5529742838717
 20
377.9848802323239
 30
0.0
 11
100.5529742838717
 21
377.9848802323239
 31
0.0
  0
LINE
  5
F7
330
1F
100
AcDbEntity
  8
NoLayerName_005
  6
DOTSX
 62
     7
370
    25
100
AcDbLine
 10
103.5529742838717
 20
357.9848802323239
 30
0.0
 11
100.5529742838717
 21
357.9848802323239
 31
0.0
  0
LINE
  5
F8
330
1F
100
AcDbEntity
  8
NoLayerName_005
  6
DOTSX
 62
     7
370
    25
100
AcDbLine
 10
101.5529742838717
 20
359.8752684355261
 30
0.0
 11
101.5529742838717
 21
376.0944920291217
 31
0.0
  0
LINE
  5
F9
330
1F
100
AcDbEntity
  8
NoLayerName_005
  6
DOTSX
 62
     7
370
    25
100
AcDbLine
 10
101.9317064713536
 20
359.3901971854534
 30
0.0
 11
103.5529742838717
 21
358.9848802323239
 31
0.0
  0
LINE
  5
FA
330
1F
100
AcDbEntity
  8
NoLayerName_005
  6
DOTSX
 62
     7
370
    25
100
AcDbLine
 10
101.9317064713536
 20
376.5795632791943
 30
0.0
 11
103.5529742838717
 21
376.9848802323239
 31
0.0
  0
LINE
  5
FB
330
1F
100
AcDbEntity
  8
NoLayerName_005
  6
DOTSX
 62
     7
370
    25
100
AcDbLine
 10
205.0529761038717
 20
308.9848802323239
 30
0.0
 11
205.0529761038717
 21
308.1848802323239
 31
0.0
  0
ARC
  5
FC
330
1F
100
AcDbEntity
  8
NoLayerName_005
  6
DOTSX
 62
     7
370
    25
100
AcDbCircle
 10
102.0529742838717
 20
376.0944920291216
 30
0.0
 40
0.5
100
AcDbArc
 50
104.0362434679265
 51
180.0
  0
LINE
  5
FD
330
1F
100
AcDbEntity
  8
NoLayerName_005
  6
DOTSX
 62
     7
370
    25
100
AcDbLine
 10
177.0529761038717
 20
308.9848802323239
 30
0.0
 11
177.0529761038717
 21
308.1848802323239
 31
0.0
  0
ARC
  5
FE
330
1F
100
AcDbEntity
  8
NoLayerName_005
  6
DOTSX
 62
     7
370
    25
100
AcDbCircle
 10
102.0529742838717
 20
359.8752684355261
 30
0.0
 40
0.5
100
AcDbArc
 50
180.0
 51
255.9637565320735
  0
LINE
  5
FF
330
1F
100
AcDbEntity
  8
NoLayerName_005
  6
DOTSX
 62
     7
370
    25
100
AcDbLine
 10
100.5529742838717
 20
381.9848802323239
 30
0.0
 11
99.75297428387171
 21
381.9848802323239
 31
0.0
  0
LINE
  5
100
330
1F
100
AcDbEntity
  8
NoLayerName_001
  6
Continuous
 62
     4
370
    50
100
AcDbLine
 10
100.0029742838717
 20
368.2348802323239
 30
0.0
 11
103.3029742838717
 21
368.2348802323239
 31
0.0
  0
LINE
  5
101
330
1F
100
AcDbEntity
  8
NoLayerName_005
  6
DOTSX
 62
     7
370
    25
100
AcDbLine
 10
100.5529742838717
 20
353.9848802323239
 30
0.0
 11
99.75297428387171
 21
353.9848802323239
 31
0.0
  0
LINE
  5
102
330
1F
100
AcDbEntity
  8
NoLayerName_001
  6
Continuous
 62
     4
370
    50
100
AcDbLine
 10
103.3029742838717
 20
367.7348802323239
 30
0.0
 11
100.0029742838717
 21
367.7348802323239
 31
0.0
  0
ARC
  5
103
330
1F
100
AcDbEntity
  8
NoLayerName_001
  6
Continuous
 62
     4
370
    50
100
AcDbCircle
 10
100.0029742838717
 20
367.9848802323239
 30
0.0
 40
0.25
100
AcDbArc
 50
90.0
 51
270.0
  0
LINE
  5
104
330
1F
100
AcDbEntity
  8
NoLayerName_001
  6
Continuous
 62
     4
370
    50
100
AcDbLine
 10
99.75297428387172
 20
310.1848802323238
 30
0.0
 11
99.75297428387172
 21
425.7848802323239
 31
0.0
  0
LINE
  5
105
330
1F
100
AcDbEntity
  8
NoLayerName_001
  6
Continuous
 62
     4
370
    50
100
AcDbLine
 10
278.8029779238717
 20
368.2348802323239
 30
0.0
 11
282.1029779238717
 21
368.2348802323239
 31
0.0
  0
LINE
  5
106
330
1F
100
AcDbEntity
  8
NoLayerName_001
  6
Continuous
 62
     4
370
    50
100
AcDbLine
 10
278.8029779238717
 20
367.7348802323239
 30
0.0
 11
282.1029779238717
 21
367.7348802323239
 31
0.0
  0
ARC
  5
107
330
1F
100
AcDbEntity
  8
NoLayerName_001
  6
Continuous
 62
     4
370
    50
100
AcDbCircle
 10
282.1029779238717
 20
367.9848802323239
 30
0.0
 40
0.25
100
AcDbArc
 50
270.0
 51
90.0
  0
LINE
  5
108
330
1F
100
AcDbEntity
  8
NoLayerName_001
  6
Continuous
 62
     4
370
    50
100
AcDbLine
 10
282.3529779238717
 20
425.7848802323239
 30
0.0
 11
282.3529779238717
 21
310.1848802323238
 31
0.0
  0
CIRCLE
  5
109
330
1F
100
AcDbEntity
  8
NoLayerName_001
  6
Continuous
 62
     4
370
    50
100
AcDbCircle
 10
237.0529770238717
 20
397.9848808323239
 30
0.0
 40
2.000000039999981
  0
CIRCLE
  5
10A
330
1F
100
AcDbEntity
  8
NoLayerName_001
  6
Continuous
 62
     4
370
    50
100
AcDbCircle
 10
237.0529770238717
 20
397.9848808323239
 30
0.0
 40
1.000000019999991
  0
CIRCLE
  5
10B
330
1F
100
AcDbEntity
  8
NoLayerName_001
  6
Continuous
 62
     4
370
    50
100
AcDbCircle
 10
145.0529751838717
 20
397.9848808323239
 30
0.0
 40
2.000000039999981
  0
CIRCLE
  5
10C
330
1F
100
AcDbEntity
  8
NoLayerName_001
  6
Continuous
 62
     4
370
    50
100
AcDbCircle
 10
145.0529751838717
 20
397.9848808323239
 30
0.0
 40
1.000000019999991
  0
CIRCLE
  5
10D
330
1F
100
AcDbEntity
  8
NoLayerName_001
  6
Continuous
 62
     4
370
    50
100
AcDbCircle
 10
145.0529751838717
 20
337.9848796323239
 30
0.0
 40
2.000000039999981
  0
CIRCLE
  5
10E
330
1F
100
AcDbEntity
  8
NoLayerName_001
  6
Continuous
 62
     4
370
    50
100
AcDbCircle
 10
145.0529751838717
 20
337.9848796323239
 30
0.0
 40
1.000000019999991
  0
ARC
  5
10F
330
1F
100
AcDbEntity
  8
NoLayerName_001
  6
Continuous
 62
     4
370
    50
100
AcDbCircle
 10
101.7529742838717
 20
425.7848802323239
 30
0.0
 40
2.0
100
AcDbArc
 50
90.0
 51
180.0
  0
ARC
  5
110
330
1F
100
AcDbEntity
  8
NoLayerName_001
  6
Continuous
 62
     4
370
    50
100
AcDbCircle
 10
101.7529742838717
 20
310.1848802323238
 30
0.0
 40
2.0
100
AcDbArc
 50
180.0
 51
270.0
  0
ARC
  5
111
330
1F
100
AcDbEntity
  8
NoLayerName_001
  6
Continuous
 62
     4
370
    50
100
AcDbCircle
 10
280.3529779238717
 20
310.1848802323238
 30
0.0
 40
2.0
100
AcDbArc
 50
270.0
 51
0.0
  0
ARC
  5
112
330
1F
100
AcDbEntity
  8
NoLayerName_001
  6
Continuous
 62
     4
370
    50
100
AcDbCircle
 10
280.3529779238717
 20
425.7848802323239
 30
0.0
 40
2.0
100
AcDbArc
 50
0.0
 51
90.0
  0
ARC
  5
113
330
1F
100
AcDbEntity
  8
NoLayerName_001
  6
Continuous
 62
     4
370
    50
100
AcDbCircle
 10
191.0529761038717
 20
311.7348802323239
 30
0.0
 40
0.25
100
AcDbArc
 50
0.0
 51
180.0
  0
LINE
  5
114
330
1F
100
AcDbEntity
  8
NoLayerName_001
  6
Continuous
 62
     4
370
    50
100
AcDbLine
 10
190.8029761038717
 20
308.4348802323238
 30
0.0
 11
190.8029761038717
 21
311.7348802323239
 31
0.0
  0
LINE
  5
115
330
1F
100
AcDbEntity
  8
NoLayerName_001
  6
Continuous
 62
     4
370
    50
100
AcDbLine
 10
191.3029761038717
 20
311.7348802323239
 30
0.0
 11
191.3029761038717
 21
308.4348802323239
 31
0.0
  0
ARC
  5
116
330
1F
100
AcDbEntity
  8
NoLayerName_001
  6
Continuous
 62
     4
370
    50
100
AcDbCircle
 10
191.0529761038717
 20
308.4348802323238
 30
0.0
 40
0.25
100
AcDbArc
 50
180.0
 51
0.0
  0
ARC
  5
117
330
1F
100
AcDbEntity
  8
NoLayerName_001
  6
Continuous
 62
     4
370
    50
100
AcDbCircle
 10
191.0529761038717
 20
424.2348802323239
 30
0.0
 40
0.25
100
AcDbArc
 50
180.0
 51
0.0
  0
LINE
  5
118
330
1F
100
AcDbEntity
  8
NoLayerName_001
  6
Continuous
 62
     4
370
    50
100
AcDbLine
 10
190.8029761038717
 20
427.5348802323239
 30
0.0
 11
190.8029761038717
 21
424.2348802323239
 31
0.0
  0
LINE
  5
119
330
1F
100
AcDbEntity
  8
NoLayerName_001
  6
Continuous
 62
     4
370
    50
100
AcDbLine
 10
191.3029761038717
 20
424.2348802323239
 30
0.0
 11
191.3029761038717
 21
427.5348802323239
 31
0.0
  0
ARC
  5
11A
330
1F
100
AcDbEntity
  8
NoLayerName_001
  6
Continuous
 62
     4
370
    50
100
AcDbCircle
 10
191.0529761038717
 20
427.5348802323239
 30
0.0
 40
0.25
100
AcDbArc
 50
0.0
 51
180.0
  0
LINE
  5
11B
330
1F
100
AcDbEntity
  8
NoLayerName_001
  6
Continuous
 62
     4
370
    50
100
AcDbLine
 10
103.5529742838717
 20
423.9848802323239
 30
0.0
 11
278.5529779238717
 21
423.9848802323239
 31
0.0
  0
ARC
  5
11C
330
1F
100
AcDbEntity
  8
NoLayerName_001
  6
Continuous
 62
     4
370
    50
100
AcDbCircle
 10
267.0529776238716
 20
421.6515479723239
 30
0.0
 40
4.00000007999999
100
AcDbArc
 50
35.68531496115455
 51
144.3146850388455
  0
LINE
  5
11D
330
1F
100
AcDbEntity
  8
NoLayerName_001
  6
Continuous
 62
     4
370
    50
100
AcDbLine
 10
280.3529779238717
 20
427.7848802323239
 30
0.0
 11
101.7529742838717
 21
427.7848802323239
 31
0.0
  0
LINE
  5
11E
330
1F
100
AcDbEntity
  8
NoLayerName_001
  6
Continuous
 62
     4
370
    50
100
AcDbLine
 10
272.0529777238717
 20
420.4848802323239
 30
0.0
 11
272.0529777238717
 21
423.9848802323239
 31
0.0
  0
LINE
  5
11F
330
1F
100
AcDbEntity
  8
NoLayerName_001
  6
Continuous
 62
     4
370
    50
100
AcDbLine
 10
262.0529775238717
 20
420.4848802323239
 30
0.0
 11
262.0529775238717
 21
423.9848802323239
 31
0.0
  0
CIRCLE
  5
120
330
1F
100
AcDbEntity
  8
NoLayerName_004
  6
Continuous
 62
     3
370
    25
100
AcDbCircle
 10
267.0529776238716
 20
420.4848802323239
 30
0.0
 40
2.000000040000005
  0
CIRCLE
  5
121
330
1F
100
AcDbEntity
  8
NoLayerName_004
  6
Continuous
 62
     3
370
    25
100
AcDbCircle
 10
267.0529776238716
 20
420.4848802323239
 30
0.0
 40
1.333333359999995
  0
ARC
  5
122
330
1F
100
AcDbEntity
  8
NoLayerName_001
  6
Continuous
 62
     4
370
    50
100
AcDbCircle
 10
267.0529776238716
 20
420.4848802323239
 30
0.0
 40
5.0
100
AcDbArc
 50
180.0
 51
0.0
  0
ARC
  5
123
330
1F
100
AcDbEntity
  8
NoLayerName_001
  6
Continuous
 62
     4
370
    50
100
AcDbCircle
 10
115.0529745838717
 20
420.4848802323239
 30
0.0
 40
5.0
100
AcDbArc
 50
180.0
 51
0.0
  0
LINE
  5
124
330
1F
100
AcDbEntity
  8
NoLayerName_001
  6
Continuous
 62
     4
370
    50
100
AcDbLine
 10
110.0529744838717
 20
315.4848802323239
 30
0.0
 11
110.0529744838717
 21
311.9848802323239
 31
0.0
  0
LINE
  5
125
330
1F
100
AcDbEntity
  8
NoLayerName_001
  6
Continuous
 62
     4
370
    50
100
AcDbLine
 10
120.0529746838717
 20
315.4848802323239
 30
0.0
 11
120.0529746838717
 21
311.9848802323239
 31
0.0
  0
CIRCLE
  5
126
330
1F
100
AcDbEntity
  8
NoLayerName_004
  6
Continuous
 62
     3
370
    25
100
AcDbCircle
 10
115.0529745838717
 20
315.4848802323239
 30
0.0
 40
2.000000040000005
  0
CIRCLE
  5
127
330
1F
100
AcDbEntity
  8
NoLayerName_004
  6
Continuous
 62
     3
370
    25
100
AcDbCircle
 10
115.0529745838717
 20
315.4848802323239
 30
0.0
 40
1.333333359999995
  0
ARC
  5
128
330
1F
100
AcDbEntity
  8
NoLayerName_001
  6
Continuous
 62
     4
370
    50
100
AcDbCircle
 10
115.0529745838717
 20
315.4848802323239
 30
0.0
 40
5.0
100
AcDbArc
 50
360.0
 51
180.0
  0
LINE
  5
129
330
1F
100
AcDbEntity
  8
NoLayerName_001
  6
Continuous
 62
     4
370
    50
100
AcDbLine
 10
272.0529777238717
 20
315.4848802323239
 30
0.0
 11
272.0529777238717
 21
311.9848802323239
 31
0.0
  0
LINE
  5
12A
330
1F
100
AcDbEntity
  8
NoLayerName_001
  6
Continuous
 62
     4
370
    50
100
AcDbLine
 10
262.0529775238717
 20
315.4848802323239
 30
0.0
 11
262.0529775238717
 21
311.9848802323239
 31
0.0
  0
CIRCLE
  5
12B
330
1F
100
AcDbEntity
  8
NoLayerName_004
  6
Continuous
 62
     3
370
    25
100
AcDbCircle
 10
267.0529776238716
 20
315.4848802323239
 30
0.0
 40
2.000000040000005
  0
CIRCLE
  5
12C
330
1F
100
AcDbEntity
  8
NoLayerName_004
  6
Continuous
 62
     3
370
    25
100
AcDbCircle
 10
267.0529776238716
 20
315.4848802323239
 30
0.0
 40
1.333333359999995
  0
ARC
  5
12D
330
1F
100
AcDbEntity
  8
NoLayerName_001
  6
Continuous
 62
     4
370
    50
100
AcDbCircle
 10
267.0529776238716
 20
315.4848802323239
 30
0.0
 40
5.0
100
AcDbArc
 50
0.0
 51
180.0
  0
LINE
  5
12E
330
1F
100
AcDbEntity
  8
NoLayerName_005
  6
DOTSX
 62
     7
370
    25
100
AcDbLine
 10
144.5529751838717
 20
311.9848802323239
 30
0.0
 11
144.5529751838717
 21
308.9848802323239
 31
0.0
  0
LINE
  5
12F
330
1F
100
AcDbEntity
  8
NoLayerName_005
  6
DOTSX
 62
     7
370
    25
100
AcDbLine
 10
146.4433633870739
 20
309.9848802323239
 30
0.0
 11
162.6625869806695
 21
309.9848802323239
 31
0.0
  0
LINE
  5
130
330
1F
100
AcDbEntity
  8
NoLayerName_005
  6
DOTSX
 62
     7
370
    25
100
AcDbLine
 10
145.9582921370012
 20
310.3636124198057
 30
0.0
 11
145.5529751838717
 21
311.9848802323239
 31
0.0
  0
LINE
  5
131
330
1F
100
AcDbEntity
  8
NoLayerName_005
  6
DOTSX
 62
     7
370
    25
100
AcDbLine
 10
163.1476582307422
 20
310.3636124198057
 30
0.0
 11
163.5529751838717
 21
311.9848802323239
 31
0.0
  0
ARC
  5
132
330
1F
100
AcDbEntity
  8
NoLayerName_005
  6
DOTSX
 62
     7
370
    25
100
AcDbCircle
 10
162.6625869806695
 20
310.4848802323239
 30
0.0
 40
0.5
100
AcDbArc
 50
270.0
 51
345.9637565320735
  0
ARC
  5
133
330
1F
100
AcDbEntity
  8
NoLayerName_005
  6
DOTSX
 62
     7
370
    25
100
AcDbCircle
 10
146.4433633870739
 20
310.4848802323239
 30
0.0
 40
0.5
100
AcDbArc
 50
194.0362434679265
 51
270.0
  0
LINE
  5
134
330
1F
100
AcDbEntity
  8
NoLayerName_005
  6
DOTSX
 62
     7
370
    25
100
AcDbLine
 10
164.5529751838717
 20
311.9848802323239
 30
0.0
 11
164.5529751838717
 21
308.1848802323239
 31
0.0
  0
LINE
  5
135
330
1F
100
AcDbEntity
  8
NoLayerName_005
  6
DOTSX
 62
     7
370
    25
100
AcDbLine
 10
168.5529751838717
 20
308.9848802323239
 30
0.0
 11
168.5529751838717
 21
308.1848802323239
 31
0.0
  0
LINE
  5
136
330
1F
100
AcDbEntity
  8
NoLayerName_005
  6
DOTSX
 62
     7
370
    25
100
AcDbLine
 10
117.5529751838717
 20
311.9848802323239
 30
0.0
 11
117.5529751838717
 21
308.9848802323239
 31
0.0
  0
LINE
  5
137
330
1F
100
AcDbEntity
  8
NoLayerName_005
  6
DOTSX
 62
     7
370
    25
100
AcDbLine
 10
137.5529751838717
 20
311.9848802323239
 30
0.0
 11
137.5529751838717
 21
308.9848802323239
 31
0.0
  0
LINE
  5
138
330
1F
100
AcDbEntity
  8
NoLayerName_005
  6
DOTSX
 62
     7
370
    25
100
AcDbLine
 10
119.4433633870739
 20
309.9848802323239
 30
0.0
 11
135.6625869806695
 21
309.9848802323239
 31
0.0
  0
LINE
  5
139
330
1F
100
AcDbEntity
  8
NoLayerName_005
  6
DOTSX
 62
     7
370
    25
100
AcDbLine
 10
118.9582921370012
 20
310.3636124198057
 30
0.0
 11
118.5529751838717
 21
311.9848802323239
 31
0.0
  0
LINE
  5
13A
330
1F
100
AcDbEntity
  8
NoLayerName_005
  6
DOTSX
 62
     7
370
    25
100
AcDbLine
 10
136.1476582307422
 20
310.3636124198057
 30
0.0
 11
136.5529751838717
 21
311.9848802323239
 31
0.0
  0
ARC
  5
13B
330
1F
100
AcDbEntity
  8
NoLayerName_005
  6
DOTSX
 62
     7
370
    25
100
AcDbCircle
 10
135.6625869806695
 20
310.4848802323239
 30
0.0
 40
0.5
100
AcDbArc
 50
270.0
 51
345.9637565320735
  0
ARC
  5
13C
330
1F
100
AcDbEntity
  8
NoLayerName_005
  6
DOTSX
 62
     7
370
    25
100
AcDbCircle
 10
119.4433633870739
 20
310.4848802323239
 30
0.0
 40
0.5
100
AcDbArc
 50
194.0362434679265
 51
270.0
  0
LINE
  5
13D
330
1F
100
AcDbEntity
  8
NoLayerName_005
  6
DOTSX
 62
     7
370
    25
100
AcDbLine
 10
113.5529751838717
 20
308.9848802323239
 30
0.0
 11
113.5529751838717
 21
308.1848802323239
 31
0.0
  0
LINE
  5
13E
330
1F
100
AcDbEntity
  8
NoLayerName_005
  6
DOTSX
 62
     7
370
    25
100
AcDbLine
 10
168.5529751838717
 20
308.9848802323239
 30
0.0
 11
113.5529751838717
 21
308.9848802323239
 31
0.0
  0
LINE
  5
13F
330
1F
100
AcDbEntity
  8
NoLayerName_005
  6
DOTSX
 62
     7
370
    25
100
AcDbLine
 10
237.5529770238717
 20
311.9848802323239
 30
0.0
 11
237.5529770238717
 21
308.9848802323239
 31
0.0
  0
LINE
  5
140
330
1F
100
AcDbEntity
  8
NoLayerName_005
  6
DOTSX
 62
     7
370
    25
100
AcDbLine
 10
235.6625888206695
 20
309.9848802323239
 30
0.0
 11
219.4433652270739
 21
309.9848802323239
 31
0.0
  0
LINE
  5
141
330
1F
100
AcDbEntity
  8
NoLayerName_005
  6
DOTSX
 62
     7
370
    25
100
AcDbLine
 10
236.1476600707421
 20
310.3636124198057
 30
0.0
 11
236.5529770238717
 21
311.9848802323239
 31
0.0
  0
LINE
  5
142
330
1F
100
AcDbEntity
  8
NoLayerName_005
  6
DOTSX
 62
     7
370
    25
100
AcDbLine
 10
218.9582939770012
 20
310.3636124198057
 30
0.0
 11
218.5529770238717
 21
311.9848802323239
 31
0.0
  0
ARC
  5
143
330
1F
100
AcDbEntity
  8
NoLayerName_005
  6
DOTSX
 62
     7
370
    25
100
AcDbCircle
 10
219.4433652270739
 20
310.4848802323239
 30
0.0
 40
0.5
100
AcDbArc
 50
194.0362434679265
 51
270.0
  0
ARC
  5
144
330
1F
100
AcDbEntity
  8
NoLayerName_005
  6
DOTSX
 62
     7
370
    25
100
AcDbCircle
 10
235.6625888206695
 20
310.4848802323239
 30
0.0
 40
0.5
100
AcDbArc
 50
270.0
 51
345.9637565320735
  0
LINE
  5
145
330
1F
100
AcDbEntity
  8
NoLayerName_005
  6
DOTSX
 62
     7
370
    25
100
AcDbLine
 10
217.5529770238717
 20
311.9848802323239
 30
0.0
 11
217.5529770238717
 21
308.1848802323239
 31
0.0
  0
LINE
  5
146
330
1F
100
AcDbEntity
  8
NoLayerName_005
  6
DOTSX
 62
     7
370
    25
100
AcDbLine
 10
213.5529770238717
 20
308.9848802323239
 30
0.0
 11
213.5529770238717
 21
308.1848802323239
 31
0.0
  0
LINE
  5
147
330
1F
100
AcDbEntity
  8
NoLayerName_005
  6
DOTSX
 62
     7
370
    25
100
AcDbLine
 10
264.5529770238717
 20
311.9848802323239
 30
0.0
 11
264.5529770238717
 21
308.9848802323239
 31
0.0
  0
LINE
  5
148
330
1F
100
AcDbEntity
  8
NoLayerName_005
  6
DOTSX
 62
     7
370
    25
100
AcDbLine
 10
244.5529770238717
 20
311.9848802323239
 30
0.0
 11
244.5529770238717
 21
308.9848802323239
 31
0.0
  0
LINE
  5
149
330
1F
100
AcDbEntity
  8
NoLayerName_005
  6
DOTSX
 62
     7
370
    25
100
AcDbLine
 10
262.6625888206695
 20
309.9848802323239
 30
0.0
 11
246.4433652270739
 21
309.9848802323239
 31
0.0
  0
LINE
  5
14A
330
1F
100
AcDbEntity
  8
NoLayerName_005
  6
DOTSX
 62
     7
370
    25
100
AcDbLine
 10
263.1476600707422
 20
310.3636124198057
 30
0.0
 11
263.5529770238717
 21
311.9848802323239
 31
0.0
  0
LINE
  5
14B
330
1F
100
AcDbEntity
  8
NoLayerName_005
  6
DOTSX
 62
     7
370
    25
100
AcDbLine
 10
245.9582939770012
 20
310.3636124198057
 30
0.0
 11
245.5529770238717
 21
311.9848802323239
 31
0.0
  0
ARC
  5
14C
330
1F
100
AcDbEntity
  8
NoLayerName_005
  6
DOTSX
 62
     7
370
    25
100
AcDbCircle
 10
246.4433652270739
 20
310.4848802323239
 30
0.0
 40
0.5
100
AcDbArc
 50
194.0362434679265
 51
270.0
  0
ARC
  5
14D
330
1F
100
AcDbEntity
  8
NoLayerName_005
  6
DOTSX
 62
     7
370
    25
100
AcDbCircle
 10
262.6625888206695
 20
310.4848802323239
 30
0.0
 40
0.5
100
AcDbArc
 50
270.0
 51
345.9637565320735
  0
LINE
  5
14E
330
1F
100
AcDbEntity
  8
NoLayerName_005
  6
DOTSX
 62
     7
370
    25
100
AcDbLine
 10
268.5529770238717
 20
308.9848802323239
 30
0.0
 11
268.5529770238717
 21
308.1848802323239
 31
0.0
  0
LINE
  5
14F
330
1F
100
AcDbEntity
  8
NoLayerName_005
  6
DOTSX
 62
     7
370
    25
100
AcDbLine
 10
213.5529770238717
 20
308.9848802323239
 30
0.0
 11
268.5529770238717
 21
308.9848802323239
 31
0.0
  0
LINE
  5
150
330
1F
100
AcDbEntity
  8
NoLayerName_005
  6
DOTSX
 62
     7
370
    25
100
AcDbLine
 10
144.5529751838717
 20
423.9848802323239
 30
0.0
 11
144.5529751838717
 21
426.9848802323239
 31
0.0
  0
LINE
  5
151
330
1F
100
AcDbEntity
  8
NoLayerName_005
  6
DOTSX
 62
     7
370
    25
100
AcDbLine
 10
146.4433633870739
 20
425.9848802323239
 30
0.0
 11
162.6625869806695
 21
425.9848802323239
 31
0.0
  0
LINE
  5
152
330
1F
100
AcDbEntity
  8
NoLayerName_005
  6
DOTSX
 62
     7
370
    25
100
AcDbLine
 10
145.9582921370012
 20
425.606148044842
 30
0.0
 11
145.5529751838717
 21
423.9848802323239
 31
0.0
  0
LINE
  5
153
330
1F
100
AcDbEntity
  8
NoLayerName_005
  6
DOTSX
 62
     7
370
    25
100
AcDbLine
 10
163.1476582307422
 20
425.606148044842
 30
0.0
 11
163.5529751838717
 21
423.9848802323239
 31
0.0
  0
ARC
  5
154
330
1F
100
AcDbEntity
  8
NoLayerName_005
  6
DOTSX
 62
     7
370
    25
100
AcDbCircle
 10
162.6625869806695
 20
425.4848802323239
 30
0.0
 40
0.5
100
AcDbArc
 50
14.0362434679265
 51
90.00000000000001
  0
ARC
  5
155
330
1F
100
AcDbEntity
  8
NoLayerName_005
  6
DOTSX
 62
     7
370
    25
100
AcDbCircle
 10
146.4433633870739
 20
425.4848802323239
 30
0.0
 40
0.5
100
AcDbArc
 50
90.00000000000001
 51
165.9637565320735
  0
LINE
  5
156
330
1F
100
AcDbEntity
  8
NoLayerName_005
  6
DOTSX
 62
     7
370
    25
100
AcDbLine
 10
164.5529751838717
 20
423.9848802323239
 30
0.0
 11
164.5529751838717
 21
427.7848802323239
 31
0.0
  0
LINE
  5
157
330
1F
100
AcDbEntity
  8
NoLayerName_005
  6
DOTSX
 62
     7
370
    25
100
AcDbLine
 10
168.5529751838717
 20
426.9848802323239
 30
0.0
 11
168.5529751838717
 21
427.7848802323239
 31
0.0
  0
LINE
  5
158
330
1F
100
AcDbEntity
  8
NoLayerName_005
  6
DOTSX
 62
     7
370
    25
100
AcDbLine
 10
117.5529751838717
 20
423.9848802323239
 30
0.0
 11
117.5529751838717
 21
426.9848802323239
 31
0.0
  0
LINE
  5
159
330
1F
100
AcDbEntity
  8
NoLayerName_005
  6
DOTSX
 62
     7
370
    25
100
AcDbLine
 10
137.5529751838717
 20
423.9848802323239
 30
0.0
 11
137.5529751838717
 21
426.9848802323239
 31
0.0
  0
LINE
  5
15A
330
1F
100
AcDbEntity
  8
NoLayerName_005
  6
DOTSX
 62
     7
370
    25
100
AcDbLine
 10
119.4433633870739
 20
425.9848802323239
 30
0.0
 11
135.6625869806695
 21
425.9848802323239
 31
0.0
  0
LINE
  5
15B
330
1F
100
AcDbEntity
  8
NoLayerName_005
  6
DOTSX
 62
     7
370
    25
100
AcDbLine
 10
118.9582921370012
 20
425.606148044842
 30
0.0
 11
118.5529751838717
 21
423.9848802323239
 31
0.0
  0
LINE
  5
15C
330
1F
100
AcDbEntity
  8
NoLayerName_005
  6
DOTSX
 62
     7
370
    25
100
AcDbLine
 10
136.1476582307422
 20
425.606148044842
 30
0.0
 11
136.5529751838717
 21
423.9848802323239
 31
0.0
  0
ARC
  5
15D
330
1F
100
AcDbEntity
  8
NoLayerName_005
  6
DOTSX
 62
     7
370
    25
100
AcDbCircle
 10
135.6625869806695
 20
425.4848802323239
 30
0.0
 40
0.5
100
AcDbArc
 50
14.0362434679265
 51
90.00000000000001
  0
ARC
  5
15E
330
1F
100
AcDbEntity
  8
NoLayerName_005
  6
DOTSX
 62
     7
370
    25
100
AcDbCircle
 10
119.4433633870739
 20
425.4848802323239
 30
0.0
 40
0.5
100
AcDbArc
 50
90.00000000000001
 51
165.9637565320735
  0
LINE
  5
15F
330
1F
100
AcDbEntity
  8
NoLayerName_005
  6
DOTSX
 62
     7
370
    25
100
AcDbLine
 10
113.5529751838717
 20
426.9848802323239
 30
0.0
 11
113.5529751838717
 21
427.7848802323239
 31
0.0
  0
LINE
  5
160
330
1F
100
AcDbEntity
  8
NoLayerName_005
  6
DOTSX
 62
     7
370
    25
100
AcDbLine
 10
168.5529751838717
 20
426.9848802323239
 30
0.0
 11
113.5529751838717
 21
426.9848802323239
 31
0.0
  0
LINE
  5
161
330
1F
100
AcDbEntity
  8
NoLayerName_005
  6
DOTSX
 62
     7
370
    25
100
AcDbLine
 10
237.5529770238717
 20
423.9848802323239
 30
0.0
 11
237.5529770238717
 21
426.9848802323239
 31
0.0
  0
LINE
  5
162
330
1F
100
AcDbEntity
  8
NoLayerName_005
  6
DOTSX
 62
     7
370
    25
100
AcDbLine
 10
235.6625888206694
 20
425.9848802323239
 30
0.0
 11
219.4433652270738
 21
425.9848802323239
 31
0.0
  0
LINE
  5
163
330
1F
100
AcDbEntity
  8
NoLayerName_005
  6
DOTSX
 62
     7
370
    25
100
AcDbLine
 10
236.1476600707421
 20
425.606148044842
 30
0.0
 11
236.5529770238716
 21
423.9848802323239
 31
0.0
  0
LINE
  5
164
330
1F
100
AcDbEntity
  8
NoLayerName_005
  6
DOTSX
 62
     7
370
    25
100
AcDbLine
 10
218.9582939770012
 20
425.606148044842
 30
0.0
 11
218.5529770238717
 21
423.9848802323239
 31
0.0
  0
ARC
  5
165
330
1F
100
AcDbEntity
  8
NoLayerName_005
  6
DOTSX
 62
     7
370
    25
100
AcDbCircle
 10
219.4433652270739
 20
425.4848802323239
 30
0.0
 40
0.5
100
AcDbArc
 50
89.99999999999999
 51
165.9637565320735
  0
ARC
  5
166
330
1F
100
AcDbEntity
  8
NoLayerName_005
  6
DOTSX
 62
     7
370
    25
100
AcDbCircle
 10
235.6625888206694
 20
425.4848802323239
 30
0.0
 40
0.5
100
AcDbArc
 50
14.03624346792648
 51
89.99999999999999
  0
LINE
  5
167
330
1F
100
AcDbEntity
  8
NoLayerName_005
  6
DOTSX
 62
     7
370
    25
100
AcDbLine
 10
217.5529770238717
 20
423.9848802323239
 30
0.0
 11
217.5529770238717
 21
427.7848802323239
 31
0.0
  0
LINE
  5
168
330
1F
100
AcDbEntity
  8
NoLayerName_005
  6
DOTSX
 62
     7
370
    25
100
AcDbLine
 10
213.5529770238717
 20
426.9848802323239
 30
0.0
 11
213.5529770238717
 21
427.7848802323239
 31
0.0
  0
LINE
  5
169
330
1F
100
AcDbEntity
  8
NoLayerName_005
  6
DOTSX
 62
     7
370
    25
100
AcDbLine
 10
264.5529770238717
 20
423.9848802323239
 30
0.0
 11
264.5529770238717
 21
426.9848802323239
 31
0.0
  0
LINE
  5
16A
330
1F
100
AcDbEntity
  8
NoLayerName_005
  6
DOTSX
 62
     7
370
    25
100
AcDbLine
 10
244.5529770238717
 20
423.9848802323239
 30
0.0
 11
244.5529770238717
 21
426.9848802323239
 31
0.0
  0
LINE
  5
16B
330
1F
100
AcDbEntity
  8
NoLayerName_005
  6
DOTSX
 62
     7
370
    25
100
AcDbLine
 10
262.6625888206695
 20
425.9848802323239
 30
0.0
 11
246.4433652270739
 21
425.9848802323239
 31
0.0
  0
LINE
  5
16C
330
1F
100
AcDbEntity
  8
NoLayerName_005
  6
DOTSX
 62
     7
370
    25
100
AcDbLine
 10
263.1476600707422
 20
425.606148044842
 30
0.0
 11
263.5529770238717
 21
423.9848802323239
 31
0.0
  0
LINE
  5
16D
330
1F
100
AcDbEntity
  8
NoLayerName_005
  6
DOTSX
 62
     7
370
    25
100
AcDbLine
 10
245.9582939770011
 20
425.606148044842
 30
0.0
 11
245.5529770238716
 21
423.9848802323239
 31
0.0
  0
ARC
  5
16E
330
1F
100
AcDbEntity
  8
NoLayerName_005
  6
DOTSX
 62
     7
370
    25
100
AcDbCircle
 10
246.4433652270739
 20
425.4848802323239
 30
0.0
 40
0.5
100
AcDbArc
 50
89.99999999999999
 51
165.9637565320735
  0
ARC
  5
16F
330
1F
100
AcDbEntity
  8
NoLayerName_005
  6
DOTSX
 62
     7
370
    25
100
AcDbCircle
 10
262.6625888206695
 20
425.4848802323239
 30
0.0
 40
0.5
100
AcDbArc
 50
14.03624346792648
 51
89.99999999999999
  0
LINE
  5
170
330
1F
100
AcDbEntity
  8
NoLayerName_005
  6
DOTSX
 62
     7
370
    25
100
AcDbLine
 10
268.5529770238717
 20
426.9848802323239
 30
0.0
 11
268.5529770238717
 21
427.7848802323239
 31
0.0
  0
LINE
  5
171
330
1F
100
AcDbEntity
  8
NoLayerName_005
  6
DOTSX
 62
     7
370
    25
100
AcDbLine
 10
213.5529770238717
 20
426.9848802323239
 30
0.0
 11
268.5529770238717
 21
426.9848802323239
 31
0.0
  0
LINE
  5
172
330
1F
100
AcDbEntity
  8
NoLayerName_005
  6
DOTSX
 62
     7
370
    25
100
AcDbLine
 10
281.5529779238717
 20
387.9848802323239
 30
0.0
 11
281.5529779238717
 21
415.9848802323239
 31
0.0
  0
LINE
  5
173
330
1F
100
AcDbEntity
  8
NoLayerName_005
  6
DOTSX
 62
     7
370
    25
100
AcDbLine
 10
278.5529779238717
 20
411.9848802323239
 30
0.0
 11
281.5529779238717
 21
411.9848802323239
 31
0.0
  0
LINE
  5
174
330
1F
100
AcDbEntity
  8
NoLayerName_005
  6
DOTSX
 62
     7
370
    25
100
AcDbLine
 10
278.5529779238717
 20
391.9848802323239
 30
0.0
 11
281.5529779238717
 21
391.9848802323239
 31
0.0
  0
LINE
  5
175
330
1F
100
AcDbEntity
  8
NoLayerName_005
  6
DOTSX
 62
     7
370
    25
100
AcDbLine
 10
280.5529779238717
 20
393.8752684355261
 30
0.0
 11
280.5529779238717
 21
410.0944920291217
 31
0.0
  0
LINE
  5
176
330
1F
100
AcDbEntity
  8
NoLayerName_005
  6
DOTSX
 62
     7
370
    25
100
AcDbLine
 10
280.1742457363898
 20
393.3901971854534
 30
0.0
 11
278.5529779238717
 21
392.9848802323239
 31
0.0
  0
LINE
  5
177
330
1F
100
AcDbEntity
  8
NoLayerName_005
  6
DOTSX
 62
     7
370
    25
100
AcDbLine
 10
280.1742457363898
 20
410.5795632791943
 30
0.0
 11
278.5529779238717
 21
410.9848802323239
 31
0.0
  0
ARC
  5
178
330
1F
100
AcDbEntity
  8
NoLayerName_005
  6
DOTSX
 62
     7
370
    25
100
AcDbCircle
 10
280.0529779238717
 20
410.0944920291216
 30
0.0
 40
0.5
100
AcDbArc
 50
0.0
 51
75.96375653207352
  0
ARC
  5
179
330
1F
100
AcDbEntity
  8
NoLayerName_005
  6
DOTSX
 62
     7
370
    25
100
AcDbCircle
 10
280.0529779238717
 20
393.8752684355261
 30
0.0
 40
0.5
100
AcDbArc
 50
284.0362434679265
 51
359.9999999999999
  0
LINE
  5
17A
330
1F
100
AcDbEntity
  8
NoLayerName_005
  6
DOTSX
 62
     7
370
    25
100
AcDbLine
 10
281.5529779238717
 20
415.9848802323239
 30
0.0
 11
282.3529779238717
 21
415.9848802323239
 31
0.0
  0
LINE
  5
17B
330
1F
100
AcDbEntity
  8
NoLayerName_005
  6
DOTSX
 62
     7
370
    25
100
AcDbLine
 10
281.5529779238717
 20
387.9848802323239
 30
0.0
 11
282.3529779238717
 21
387.9848802323239
 31
0.0
  0
LINE
  5
17C
330
1F
100
AcDbEntity
  8
NoLayerName_005
  6
DOTSX
 62
     7
370
    25
100
AcDbLine
 10
281.5529779238717
 20
347.9848802323239
 30
0.0
 11
281.5529779238717
 21
319.9848802323239
 31
0.0
  0
LINE
  5
17D
330
1F
100
AcDbEntity
  8
NoLayerName_005
  6
DOTSX
 62
     7
370
    25
100
AcDbLine
 10
278.5529779238717
 20
343.9848802323239
 30
0.0
 11
281.5529779238717
 21
343.9848802323239
 31
0.0
  0
LINE
  5
17E
330
1F
100
AcDbEntity
  8
NoLayerName_005
  6
DOTSX
 62
     7
370
    25
100
AcDbLine
 10
278.5529779238717
 20
323.9848802323239
 30
0.0
 11
281.5529779238717
 21
323.9848802323239
 31
0.0
  0
LINE
  5
17F
330
1F
100
AcDbEntity
  8
NoLayerName_005
  6
DOTSX
 62
     7
370
    25
100
AcDbLine
 10
280.5529779238717
 20
325.8752684355261
 30
0.0
 11
280.5529779238717
 21
342.0944920291217
 31
0.0
  0
LINE
  5
180
330
1F
100
AcDbEntity
  8
NoLayerName_005
  6
DOTSX
 62
     7
370
    25
100
AcDbLine
 10
280.1742457363898
 20
325.3901971854534
 30
0.0
 11
278.5529779238717
 21
324.9848802323239
 31
0.0
  0
LINE
  5
181
330
1F
100
AcDbEntity
  8
NoLayerName_005
  6
DOTSX
 62
     7
370
    25
100
AcDbLine
 10
280.1742457363898
 20
342.5795632791943
 30
0.0
 11
278.5529779238717
 21
342.9848802323239
 31
0.0
  0
ARC
  5
182
330
1F
100
AcDbEntity
  8
NoLayerName_005
  6
DOTSX
 62
     7
370
    25
100
AcDbCircle
 10
280.0529779238717
 20
342.0944920291216
 30
0.0
 40
0.5
100
AcDbArc
 50
0.0
 51
75.96375653207352
  0
ARC
  5
183
330
1F
100
AcDbEntity
  8
NoLayerName_005
  6
DOTSX
 62
     7
370
    25
100
AcDbCircle
 10
280.0529779238717
 20
325.8752684355261
 30
0.0
 40
0.5
100
AcDbArc
 50
284.0362434679265
 51
359.9999999999999
  0
LINE
  5
184
330
1F
100
AcDbEntity
  8
NoLayerName_005
  6
DOTSX
 62
     7
370
    25
100
AcDbLine
 10
281.5529779238717
 20
319.9848802323239
 30
0.0
 11
282.3529779238717
 21
319.9848802323239
 31
0.0
  0
LINE
  5
185
330
1F
100
AcDbEntity
  8
NoLayerName_005
  6
DOTSX
 62
     7
370
    25
100
AcDbLine
 10
281.5529779238717
 20
347.9848802323239
 30
0.0
 11
282.3529779238717
 21
347.9848802323239
 31
0.0
  0
LINE
  5
186
330
1F
100
AcDbEntity
  8
NoLayerName_005
  6
DOTSX
 62
     7
370
    25
100
AcDbLine
 10
100.5529742838717
 20
347.9848802323239
 30
0.0
 11
100.5529742838717
 21
319.9848802323239
 31
0.0
  0
LINE
  5
187
330
1F
100
AcDbEntity
  8
NoLayerName_005
  6
DOTSX
 62
     7
370
    25
100
AcDbLine
 10
103.5529742838717
 20
343.9848802323239
 30
0.0
 11
100.5529742838717
 21
343.9848802323239
 31
0.0
  0
LINE
  5
188
330
1F
100
AcDbEntity
  8
NoLayerName_005
  6
DOTSX
 62
     7
370
    25
100
AcDbLine
 10
103.5529742838717
 20
323.9848802323239
 30
0.0
 11
100.5529742838717
 21
323.9848802323239
 31
0.0
  0
LINE
  5
189
330
1F
100
AcDbEntity
  8
NoLayerName_005
  6
DOTSX
 62
     7
370
    25
100
AcDbLine
 10
101.5529742838717
 20
325.8752684355261
 30
0.0
 11
101.5529742838717
 21
342.0944920291217
 31
0.0
  0
LINE
  5
18A
330
1F
100
AcDbEntity
  8
NoLayerName_005
  6
DOTSX
 62
     7
370
    25
100
AcDbLine
 10
101.9317064713536
 20
325.3901971854534
 30
0.0
 11
103.5529742838717
 21
324.9848802323239
 31
0.0
  0
LINE
  5
18B
330
1F
100
AcDbEntity
  8
NoLayerName_005
  6
DOTSX
 62
     7
370
    25
100
AcDbLine
 10
101.9317064713536
 20
342.5795632791943
 30
0.0
 11
103.5529742838717
 21
342.9848802323239
 31
0.0
  0
ARC
  5
18C
330
1F
100
AcDbEntity
  8
NoLayerName_005
  6
DOTSX
 62
     7
370
    25
100
AcDbCircle
 10
102.0529742838717
 20
342.0944920291216
 30
0.0
 40
0.5
100
AcDbArc
 50
104.0362434679265
 51
180.0
  0
ARC
  5
18D
330
1F
100
AcDbEntity
  8
NoLayerName_005
  6
DOTSX
 62
     7
370
    25
100
AcDbCircle
 10
102.0529742838717
 20
325.8752684355261
 30
0.0
 40
0.5
100
AcDbArc
 50
180.0
 51
255.9637565320735
  0
LINE
  5
18E
330
1F
100
AcDbEntity
  8
NoLayerName_005
  6
DOTSX
 62
     7
370
    25
100
AcDbLine
 10
100.5529742838717
 20
319.9848802323239
 30
0.0
 11
99.75297428387171
 21
319.9848802323239
 31
0.0
  0
LINE
  5
18F
330
1F
100
AcDbEntity
  8
NoLayerName_005
  6
DOTSX
 62
     7
370
    25
100
AcDbLine
 10
100.5529742838717
 20
347.9848802323239
 30
0.0
 11
99.75297428387171
 21
347.9848802323239
 31
0.0
  0
LINE
  5
190
330
1F
100
AcDbEntity
  8
NoLayerName_005
  6
DOTSX
 62
     7
370
    25
100
AcDbLine
 10
100.5529742838717
 20
387.9848802323239
 30
0.0
 11
100.5529742838717
 21
415.9848802323239
 31
0.0
  0
LINE
  5
191
330
1F
100
AcDbEntity
  8
NoLayerName_005
  6
DOTSX
 62
     7
370
    25
100
AcDbLine
 10
103.5529742838717
 20
411.9848802323239
 30
0.0
 11
100.5529742838717
 21
411.9848802323239
 31
0.0
  0
LINE
  5
192
330
1F
100
AcDbEntity
  8
NoLayerName_005
  6
DOTSX
 62
     7
370
    25
100
AcDbLine
 10
103.5529742838717
 20
391.9848802323239
 30
0.0
 11
100.5529742838717
 21
391.9848802323239
 31
0.0
  0
LINE
  5
193
330
1F
100
AcDbEntity
  8
NoLayerName_005
  6
DOTSX
 62
     7
370
    25
100
AcDbLine
 10
101.5529742838717
 20
393.8752684355261
 30
0.0
 11
101.5529742838717
 21
410.0944920291217
 31
0.0
  0
LINE
  5
194
330
1F
100
AcDbEntity
  8
NoLayerName_005
  6
DOTSX
 62
     7
370
    25
100
AcDbLine
 10
101.9317064713536
 20
393.3901971854534
 30
0.0
 11
103.5529742838717
 21
392.9848802323239
 31
0.0
  0
LINE
  5
195
330
1F
100
AcDbEntity
  8
NoLayerName_005
  6
DOTSX
 62
     7
370
    25
100
AcDbLine
 10
101.9317064713536
 20
410.5795632791943
 30
0.0
 11
103.5529742838717
 21
410.9848802323239
 31
0.0
  0
ARC
  5
196
330
1F
100
AcDbEntity
  8
NoLayerName_005
  6
DOTSX
 62
     7
370
    25
100
AcDbCircle
 10
102.0529742838717
 20
410.0944920291216
 30
0.0
 40
0.5
100
AcDbArc
 50
104.0362434679265
 51
180.0
  0
ARC
  5
197
330
1F
100
AcDbEntity
  8
NoLayerName_005
  6
DOTSX
 62
     7
370
    25
100
AcDbCircle
 10
102.0529742838717
 20
393.8752684355261
 30
0.0
 40
0.5
100
AcDbArc
 50
180.0
 51
255.9637565320735
  0
LINE
  5
198
330
1F
100
AcDbEntity
  8
NoLayerName_005
  6
DOTSX
 62
     7
370
    25
100
AcDbLine
 10
100.5529742838717
 20
415.9848802323239
 30
0.0
 11
99.75297428387171
 21
415.9848802323239
 31
0.0
  0
LINE
  5
199
330
1F
100
AcDbEntity
  8
NoLayerName_005
  6
DOTSX
 62
     7
370
    25
100
AcDbLine
 10
100.5529742838717
 20
387.9848802323239
 30
0.0
 11
99.75297428387171
 21
387.9848802323239
 31
0.0
  0
LINE
  5
19A
330
1F
100
AcDbEntity
  8
NoLayerName_002
  6
Continuous
 62
     4
370
    50
100
AcDbLine
 10
166.5529756438717
 20
402.9848802323239
 30
0.0
 11
169.5529756438717
 21
402.9848802323239
 31
0.0
  0
LINE
  5
19B
330
1F
100
AcDbEntity
  8
NoLayerName_002
  6
Continuous
 62
     4
370
    50
100
AcDbLine
 10
169.5529756438717
 20
332.9848802323239
 30
0.0
 11
166.5529756438717
 21
332.9848802323239
 31
0.0
  0
LINE
  5
19C
330
1F
100
AcDbEntity
  8
NoLayerName_002
  6
Continuous
 62
     4
370
    50
100
AcDbLine
 10
169.5529756438717
 20
423.9848802323239
 30
0.0
 11
169.5529756438717
 21
311.9848802323239
 31
0.0
  0
LINE
  5
19D
330
1F
100
AcDbEntity
  8
NoLayerName_002
  6
Continuous
 62
     4
370
    50
100
AcDbLine
 10
166.5529756438717
 20
423.9848802323239
 30
0.0
 11
166.5529756438717
 21
311.9848802323239
 31
0.0
  0
ARC
  5
19E
330
1F
100
AcDbEntity
  8
NoLayerName_001
  6
Continuous
 62
     4
370
    50
100
AcDbCircle
 10
168.0529756438717
 20
367.9848802323239
 30
0.0
 40
2.5
100
AcDbArc
 50
306.8698976458435
 51
53.13010235415648
  0
LINE
  5
19F
330
1F
100
AcDbEntity
  8
NoLayerName_001
  6
Continuous
 62
     4
370
    50
100
AcDbLine
 10
280.3529779238717
 20
197.4978426617861
 30
0.0
 11
101.7529742838717
 21
197.4978426617861
 31
0.0
  0
ARC
  5
1A0
330
1F
100
AcDbEntity
  8
NoLayerName_001
  6
Continuous
 62
     4
370
    50
100
AcDbCircle
 10
101.7529742838717
 20
199.4978426617861
 30
0.0
 40
2.0
100
AcDbArc
 50
180.0
 51
270.0
  0
ARC
  5
1A1
330
1F
100
AcDbEntity
  8
NoLayerName_001
  6
Continuous
 62
     4
370
    50
100
AcDbCircle
 10
280.3529779238717
 20
199.4978426617861
 30
0.0
 40
2.0
100
AcDbArc
 50
270.0
 51
0.0
  0
LINE
  5
1A2
330
1F
100
AcDbEntity
  8
NoLayerName_001
  6
Continuous
 62
     4
370
    50
100
AcDbLine
 10
163.1742958474313
 20
230.8049494429726
 30
0.0
 11
161.7600822850582
 21
232.2191630053457
 31
0.0
  0
LINE
  5
1A3
330
1F
100
AcDbEntity
  8
NoLayerName_001
  6
Continuous
 62
     4
370
    50
100
AcDbLine
 10
158.931655160312
 20
229.3907358805995
 30
0.0
 11
160.3458687226851
 21
227.9765223182264
 31
0.0
  0
ARC
  5
1A4
330
1F
100
AcDbEntity
  8
NoLayerName_001
  6
Continuous
 62
     4
370
    50
100
AcDbCircle
 10
160.3458687226851
 20
230.8049494429726
 30
0.0
 40
1.999999999999986
100
AcDbArc
 50
45.00000000000025
 51
224.9999999999997
  0
ARC
  5
1A5
330
1F
100
AcDbEntity
  8
NoLayerName_001
  6
Continuous
 62
     4
370
    50
100
AcDbCircle
 10
161.7600822850582
 20
229.3907358805995
 30
0.0
 40
1.999999999999986
100
AcDbArc
 50
225.0
 51
44.9999999999997
  0
LINE
  5
1A6
330
1F
100
AcDbEntity
  8
NoLayerName_001
  6
Continuous
 62
     4
370
    50
100
AcDbLine
 10
282.3529779238717
 20
237.0978426617861
 30
0.0
 11
99.75297428387171
 21
237.0978426617861
 31
0.0
  0
ARC
  5
1A7
330
1F
100
AcDbEntity
  8
NoLayerName_001
  6
Continuous
 62
     4
370
    50
100
AcDbCircle
 10
103.4529742838717
 20
237.0978426617861
 30
0.0
 40
0.1
100
AcDbArc
 50
0.0000000000000127
 51
90.00000000000001
  0
LINE
  5
1A8
330
1F
100
AcDbEntity
  8
NoLayerName_001
  6
Continuous
 62
     4
370
    50
100
AcDbLine
 10
103.4529742838717
 20
237.1978426617861
 30
0.0
 11
99.85297428387175
 21
237.1978426617861
 31
0.0
  0
ARC
  5
1A9
330
1F
100
AcDbEntity
  8
NoLayerName_001
  6
Continuous
 62
     4
370
    50
100
AcDbCircle
 10
99.85297428387175
 20
237.0978426617861
 30
0.0
 40
0.1
100
AcDbArc
 50
90.0
 51
180.0
  0
LINE
  5
1AA
330
1F
100
AcDbEntity
  8
NoLayerName_001
  6
Continuous
 62
     4
370
    50
100
AcDbLine
 10
99.75297428387172
 20
199.4978426617861
 30
0.0
 11
99.75297428387172
 21
237.0978426617861
 31
0.0
  0
ARC
  5
1AB
330
1F
100
AcDbEntity
  8
NoLayerName_001
  6
Continuous
 62
     4
370
    50
100
AcDbCircle
 10
278.6529779238717
 20
237.0978426617861
 30
0.0
 40
0.1
100
AcDbArc
 50
90.0
 51
180.0
  0
LINE
  5
1AC
330
1F
100
AcDbEntity
  8
NoLayerName_001
  6
Continuous
 62
     4
370
    50
100
AcDbLine
 10
278.6529779238717
 20
237.1978426617861
 30
0.0
 11
282.2529779238716
 21
237.1978426617861
 31
0.0
  0
ARC
  5
1AD
330
1F
100
AcDbEntity
  8
NoLayerName_001
  6
Continuous
 62
     4
370
    50
100
AcDbCircle
 10
282.2529779238716
 20
237.0978426617861
 30
0.0
 40
0.1
100
AcDbArc
 50
0.0
 51
90.0
  0
LINE
  5
1AE
330
1F
100
AcDbEntity
  8
NoLayerName_001
  6
Continuous
 62
     4
370
    50
100
AcDbLine
 10
282.3529779238717
 20
199.4978426617861
 30
0.0
 11
282.3529779238717
 21
237.097842661786
 31
0.0
  0
ARC
  5
1AF
330
1F
100
AcDbEntity
  8
NoLayerName_001
  6
Continuous
 62
     4
370
    50
100
AcDbCircle
 10
191.0529761038717
 20
236.8353426617861
 30
0.0
 40
0.3624999999999403
100
AcDbArc
 50
46.39718102728742
 51
133.6028189727126
  0
LINE
  5
1B0
330
1F
100
AcDbEntity
  8
NoLayerName_001
  6
Continuous
 62
     4
370
    50
100
AcDbLine
 10
366.9529779238717
 20
425.7848802323239
 30
0.0
 11
366.9529779238717
 21
310.1848802323238
 31
0.0
  0
ARC
  5
1B1
330
1F
100
AcDbEntity
  8
NoLayerName_001
  6
Continuous
 62
     4
370
    50
100
AcDbCircle
 10
364.9529779238717
 20
310.1848802323238
 30
0.0
 40
2.0
100
AcDbArc
 50
270.0
 51
0.0
  0
ARC
  5
1B2
330
1F
100
AcDbEntity
  8
NoLayerName_001
  6
Continuous
 62
     4
370
    50
100
AcDbCircle
 10
364.9529779238717
 20
425.7848802323239
 30
0.0
 40
2.0
100
AcDbArc
 50
0.0
 51
90.0
  0
ARC
  5
1B3
330
1F
100
AcDbEntity
  8
NoLayerName_001
  6
Continuous
 62
     4
370
    50
100
AcDbCircle
 10
327.6154779238716
 20
367.9848802323239
 30
0.0
 40
0.3624999999999403
100
AcDbArc
 50
136.3971810272874
 51
223.6028189727126
  0
ARC
  5
1B4
330
1F
100
AcDbEntity
  8
NoLayerName_001
  6
Continuous
 62
     4
370
    50
100
AcDbCircle
 10
327.3529779238717
 20
311.8848784123239
 30
0.0
 40
0.1
100
AcDbArc
 50
90.0
 51
180.0
  0
LINE
  5
1B5
330
1F
100
AcDbEntity
  8
NoLayerName_001
  6
Continuous
 62
     4
370
    50
100
AcDbLine
 10
327.2529779238716
 20
311.8848784123239
 30
0.0
 11
327.2529779238716
 21
308.284878412324
 31
0.0
  0
ARC
  5
1B6
330
1F
100
AcDbEntity
  8
NoLayerName_001
  6
Continuous
 62
     4
370
    50
100
AcDbCircle
 10
327.3529779238717
 20
308.2848784123239
 30
0.0
 40
0.1
100
AcDbArc
 50
180.0
 51
270.0
  0
LINE
  5
1B7
330
1F
100
AcDbEntity
  8
NoLayerName_001
  6
Continuous
 62
     4
370
    50
100
AcDbLine
 10
327.3529779238717
 20
308.1848802323238
 30
0.0
 11
364.9529779238717
 21
308.1848802323238
 31
0.0
  0
ARC
  5
1B8
330
1F
100
AcDbEntity
  8
NoLayerName_001
  6
Continuous
 62
     4
370
    50
100
AcDbCircle
 10
327.3529779238717
 20
424.0848820523239
 30
0.0
 40
0.1
100
AcDbArc
 50
180.0
 51
270.0
  0
LINE
  5
1B9
330
1F
100
AcDbEntity
  8
NoLayerName_001
  6
Continuous
 62
     4
370
    50
100
AcDbLine
 10
327.2529779238716
 20
424.0848820523239
 30
0.0
 11
327.2529779238716
 21
427.6848820523239
 31
0.0
  0
ARC
  5
1BA
330
1F
100
AcDbEntity
  8
NoLayerName_001
  6
Continuous
 62
     4
370
    50
100
AcDbCircle
 10
327.3529779238717
 20
427.6848820523238
 30
0.0
 40
0.1
100
AcDbArc
 50
90.0
 51
180.0
  0
LINE
  5
1BB
330
1F
100
AcDbEntity
  8
NoLayerName_001
  6
Continuous
 62
     4
370
    50
100
AcDbLine
 10
327.3529779238717
 20
427.7848820523238
 30
0.0
 11
327.3529779238717
 21
308.1848784123239
 31
0.0
  0
LINE
  5
1BC
330
1F
100
AcDbEntity
  8
NoLayerName_001
  6
Continuous
 62
     4
370
    50
100
AcDbLine
 10
327.3529779238717
 20
427.7848802323239
 30
0.0
 11
364.9529779238717
 21
427.7848802323239
 31
0.0
  0
LINE
  5
1BD
330
1F
100
AcDbEntity
  8
NoLayerName_001
  6
Continuous
 62
     4
370
    50
100
AcDbLine
 10
333.6458711426851
 20
324.8635598887643
 30
0.0
 11
332.231657580312
 21
326.2777734511374
 31
0.0
  0
LINE
  5
1BE
330
1F
100
AcDbEntity
  8
NoLayerName_001
  6
Continuous
 62
     4
370
    50
100
AcDbLine
 10
335.0600847050582
 20
329.1062005758836
 30
0.0
 11
336.4742982674313
 21
327.6919870135105
 31
0.0
  0
ARC
  5
1BF
330
1F
100
AcDbEntity
  8
NoLayerName_001
  6
Continuous
 62
     4
370
    50
100
AcDbCircle
 10
333.6458711426851
 20
327.6919870135105
 30
0.0
 40
1.999999999999986
100
AcDbArc
 50
45.00000000000031
 51
224.9999999999998
  0
ARC
  5
1C0
330
1F
100
AcDbEntity
  8
NoLayerName_001
  6
Continuous
 62
     4
370
    50
100
AcDbCircle
 10
335.0600847050582
 20
326.2777734511374
 30
0.0
 40
1.999999999999986
100
AcDbArc
 50
225.0000000000003
 51
45.0
  0
LINE
  5
1C1
330
1F
100
AcDbEntity
  8
NoLayerName_001
  6
Continuous
 62
     4
370
    50
100
AcDbLine
 10
333.6458711426851
 20
411.1062005758835
 30
0.0
 11
332.231657580312
 21
409.6919870135104
 31
0.0
  0
LINE
  5
1C2
330
1F
100
AcDbEntity
  8
NoLayerName_001
  6
Continuous
 62
     4
370
    50
100
AcDbLine
 10
335.0600847050582
 20
406.8635598887643
 30
0.0
 11
336.4742982674313
 21
408.2777734511374
 31
0.0
  0
ARC
  5
1C3
330
1F
100
AcDbEntity
  8
NoLayerName_001
  6
Continuous
 62
     4
370
    50
100
AcDbCircle
 10
333.6458711426851
 20
408.2777734511374
 30
0.0
 40
1.999999999999986
100
AcDbArc
 50
135.0000000000003
 51
314.9999999999997
  0
ARC
  5
1C4
330
1F
100
AcDbEntity
  8
NoLayerName_001
  6
Continuous
 62
     4
370
    50
100
AcDbCircle
 10
335.0600847050582
 20
409.6919870135105
 30
0.0
 40
1.999999999999986
100
AcDbArc
 50
315.0
 51
134.9999999999997
  0
LINE
  5
1C5
330
1F
100
AcDbEntity
  8
NoLayerName_003
  6
CENTER
 62
    30
370
    25
100
AcDbLine
 10
334.3529779238717
 20
323.5848802323239
 30
0.0
 11
334.3529779238717
 21
330.1848802323239
 31
0.0
  0
LINE
  5
1C6
330
1F
100
AcDbEntity
  8
NoLayerName_003
  6
CENTER
 62
    30
370
    25
100
AcDbLine
 10
338.2529779238716
 20
326.9848802323239
 30
0.0
 11
330.1529779238717
 21
326.9848802323239
 31
0.0
  0
LINE
  5
1C7
330
1F
100
AcDbEntity
  8
NoLayerName_003
  6
CENTER
 62
    30
370
    25
100
AcDbLine
 10
334.3529779238717
 20
412.3848802323239
 30
0.0
 11
334.3529779238717
 21
405.7848802323239
 31
0.0
  0
LINE
  5
1C8
330
1F
100
AcDbEntity
  8
NoLayerName_003
  6
CENTER
 62
    30
370
    25
100
AcDbLine
 10
338.2529779238716
 20
408.9848802323239
 30
0.0
 11
330.1529779238717
 21
408.9848802323239
 31
0.0
  0
CIRCLE
  5
1C9
330
1F
100
AcDbEntity
  8
NoLayerName_005
  6
Continuous
 62
     7
370
    50
100
AcDbCircle
 10
191.0529761038717
 20
217.497843061786
 30
0.0
 40
10.0
  0
LINE
  5
1CA
330
1F
100
AcDbEntity
  8
NoLayerName_005
  6
Continuous
 62
     7
370
    50
100
AcDbLine
 10
190.3029761038717
 20
207.5260077241965
 30
0.0
 11
190.0529761038717
 21
209.056871553719
 31
0.0
  0
LINE
  5
1CB
330
1F
100
AcDbEntity
  8
NoLayerName_005
  6
Continuous
 62
     7
370
    50
100
AcDbLine
 10
183.242880345265
 20
220.8523034120351
 30
0.0
 11
182.0421133791637
 21
221.8342416777425
 31
0.0
  0
LINE
  5
1CC
330
1F
100
AcDbEntity
  8
NoLayerName_005
  6
Continuous
 62
     7
370
    50
100
AcDbLine
 10
182.7921133791637
 20
223.1332797834192
 30
0.0
 11
184.242880345265
 21
222.584354219604
 31
0.0
  0
ARC
  5
1CD
330
1F
100
AcDbEntity
  8
NoLayerName_005
  6
Continuous
 62
     7
370
    50
100
AcDbCircle
 10
191.0529761038717
 20
217.497843061786
 30
0.0
 40
9.0
100
AcDbArc
 50
155.8437598791974
 51
264.1562401208027
  0
ARC
  5
1CE
330
1F
100
AcDbEntity
  8
NoLayerName_005
  6
Continuous
 62
     7
370
    50
100
AcDbCircle
 10
191.0529761038717
 20
217.497843061786
 30
0.0
 40
9.0
100
AcDbArc
 50
35.84375987919731
 51
144.1562401208027
  0
ARC
  5
1CF
330
1F
100
AcDbEntity
  8
NoLayerName_005
  6
Continuous
 62
     7
370
    50
100
AcDbCircle
 10
191.0529761038717
 20
217.497843061786
 30
0.0
 40
9.0
100
AcDbArc
 50
275.8437598791973
 51
24.15624012080263
  0
CIRCLE
  5
1D0
330
1F
100
AcDbEntity
  8
NoLayerName_005
  6
Continuous
 62
     7
370
    50
100
AcDbCircle
 10
127.5529751838717
 20
217.497843061786
 30
0.0
 40
10.0
  0
CIRCLE
  5
1D1
330
1F
100
AcDbEntity
  8
NoLayerName_005
  6
Continuous
 62
     7
370
    50
100
AcDbCircle
 10
127.5529751838717
 20
217.497843061786
 30
0.0
 40
8.5
  0
LINE
  5
1D2
330
1F
100
AcDbEntity
  8
NoLayerName_005
  6
Continuous
 62
     7
370
    50
100
AcDbLine
 10
128.5529751838717
 20
209.056871553719
 30
0.0
 11
128.3029751838717
 21
207.5260077241965
 31
0.0
  0
LINE
  5
1D3
330
1F
100
AcDbEntity
  8
NoLayerName_005
  6
Continuous
 62
     7
370
    50
100
AcDbLine
 10
126.8029751838717
 20
207.5260077241965
 30
0.0
 11
126.5529751838717
 21
209.056871553719
 31
0.0
  0
LINE
  5
1D4
330
1F
100
AcDbEntity
  8
NoLayerName_005
  6
Continuous
 62
     7
370
    50
100
AcDbLine
 10
134.3630709424784
 20
222.584354219604
 30
0.0
 11
135.8138379085796
 21
223.1332797834192
 31
0.0
  0
LINE
  5
1D5
330
1F
100
AcDbEntity
  8
NoLayerName_005
  6
Continuous
 62
     7
370
    50
100
AcDbLine
 10
136.5638379085796
 20
221.8342416777425
 30
0.0
 11
135.3630709424784
 21
220.8523034120351
 31
0.0
  0
LINE
  5
1D6
330
1F
100
AcDbEntity
  8
NoLayerName_005
  6
Continuous
 62
     7
370
    50
100
AcDbLine
 10
119.742879425265
 20
220.8523034120351
 30
0.0
 11
118.5421124591637
 21
221.8342416777425
 31
0.0
  0
LINE
  5
1D7
330
1F
100
AcDbEntity
  8
NoLayerName_005
  6
Continuous
 62
     7
370
    50
100
AcDbLine
 10
119.2921124591637
 20
223.1332797834192
 30
0.0
 11
120.7428794252649
 21
222.584354219604
 31
0.0
  0
ARC
  5
1D8
330
1F
100
AcDbEntity
  8
NoLayerName_005
  6
Continuous
 62
     7
370
    50
100
AcDbCircle
 10
127.5529751838717
 20
217.497843061786
 30
0.0
 40
9.0
100
AcDbArc
 50
155.8437598791974
 51
264.1562401208027
  0
ARC
  5
1D9
330
1F
100
AcDbEntity
  8
NoLayerName_005
  6
Continuous
 62
     7
370
    50
100
AcDbCircle
 10
127.5529751838717
 20
217.497843061786
 30
0.0
 40
9.0
100
AcDbArc
 50
275.8437598791973
 51
24.15624012080263
  0
CIRCLE
  5
1DA
330
1F
100
AcDbEntity
  8
NoLayerName_005
  6
Continuous
 62
     7
370
    50
100
AcDbCircle
 10
154.5529751838717
 20
217.497843061786
 30
0.0
 40
10.0
  0
CIRCLE
  5
1DB
330
1F
100
AcDbEntity
  8
NoLayerName_005
  6
Continuous
 62
     7
370
    50
100
AcDbCircle
 10
154.5529751838717
 20
217.497843061786
 30
0.0
 40
8.5
  0
LINE
  5
1DC
330
1F
100
AcDbEntity
  8
NoLayerName_005
  6
Continuous
 62
     7
370
    50
100
AcDbLine
 10
162.9939466919388
 20
218.497843061786
 30
0.0
 11
164.5248105214613
 21
218.247843061786
 31
0.0
  0
LINE
  5
1DD
330
1F
100
AcDbEntity
  8
NoLayerName_005
  6
Continuous
 62
     7
370
    50
100
AcDbLine
 10
164.5248105214613
 20
216.747843061786
 30
0.0
 11
162.9939466919388
 21
216.497843061786
 31
0.0
  0
LINE
  5
1DE
330
1F
100
AcDbEntity
  8
NoLayerName_005
  6
Continuous
 62
     7
370
    50
100
AcDbLine
 10
149.4664640260537
 20
224.3079388203928
 30
0.0
 11
148.9175384622386
 21
225.758705786494
 31
0.0
  0
LINE
  5
1DF
330
1F
100
AcDbEntity
  8
NoLayerName_005
  6
Continuous
 62
     7
370
    50
100
AcDbLine
 10
150.2165765679152
 20
226.508705786494
 30
0.0
 11
151.1985148336226
 21
225.3079388203928
 31
0.0
  0
LINE
  5
1E0
330
1F
100
AcDbEntity
  8
NoLayerName_005
  6
Continuous
 62
     7
370
    50
100
AcDbLine
 10
151.1985148336226
 20
209.6877473031793
 30
0.0
 11
150.2165765679152
 21
208.4869803370781
 31
0.0
  0
LINE
  5
1E1
330
1F
100
AcDbEntity
  8
NoLayerName_005
  6
Continuous
 62
     7
370
    50
100
AcDbLine
 10
148.9175384622386
 20
209.2369803370781
 30
0.0
 11
149.4664640260537
 21
210.6877473031793
 31
0.0
  0
ARC
  5
1E2
330
1F
100
AcDbEntity
  8
NoLayerName_005
  6
Continuous
 62
     7
370
    50
100
AcDbCircle
 10
154.5529751838717
 20
217.497843061786
 30
0.0
 40
9.0
100
AcDbArc
 50
245.8437598791973
 51
354.1562401208027
  0
ARC
  5
1E3
330
1F
100
AcDbEntity
  8
NoLayerName_005
  6
Continuous
 62
     7
370
    50
100
AcDbCircle
 10
154.5529751838717
 20
217.497843061786
 30
0.0
 40
9.0
100
AcDbArc
 50
125.8437598791973
 51
234.1562401208027
  0
ARC
  5
1E4
330
1F
100
AcDbEntity
  8
NoLayerName_005
  6
Continuous
 62
     7
370
    50
100
AcDbCircle
 10
154.5529751838717
 20
217.497843061786
 30
0.0
 40
9.0
100
AcDbArc
 50
5.843759879197241
 51
114.1562401208026
  0
ARC
  5
1E5
330
1F
100
AcDbEntity
  8
NoLayerName_005
  6
Continuous
 62
     7
370
    50
100
AcDbCircle
 10
154.5529751838717
 20
217.497843061786
 30
0.0
 40
14.0
100
AcDbArc
 50
215.1848491243632
 51
50.57343428856134
  0
ARC
  5
1E6
330
1F
100
AcDbEntity
  8
NoLayerName_005
  6
Continuous
 62
     7
370
    50
100
AcDbCircle
 10
127.5529751838717
 20
217.497843061786
 30
0.0
 40
14.0
100
AcDbArc
 50
35.18484912436318
 51
324.8151508756367
  0
ARC
  5
1E7
330
1F
100
AcDbEntity
  8
NoLayerName_005
  6
Continuous
 62
     7
370
    50
100
AcDbCircle
 10
154.5529751838717
 20
217.497843061786
 30
0.0
 40
14.0
100
AcDbArc
 50
74.25110462972616
 51
144.8151508756368
  0
ARC
  5
1E8
330
1F
100
AcDbEntity
  8
NoLayerName_005
  6
Continuous
 62
     7
370
    50
100
AcDbCircle
 10
141.0529751838717
 20
207.9799859189289
 30
0.0
 40
2.517857142857139
100
AcDbArc
 50
35.18484912436319
 51
144.8151508756368
  0
ARC
  5
1E9
330
1F
100
AcDbEntity
  8
NoLayerName_005
  6
Continuous
 62
     7
370
    50
100
AcDbCircle
 10
141.0529751838717
 20
227.0157002046432
 30
0.0
 40
2.517857142857139
100
AcDbArc
 50
215.1848491243632
 51
324.8151508756368
  0
ARC
  5
1EA
330
1F
100
AcDbEntity
  8
NoLayerName_005
  6
Continuous
 62
     7
370
    50
100
AcDbCircle
 10
127.5529751838717
 20
217.497843061786
 30
0.0
 40
9.0
100
AcDbArc
 50
35.84375987919731
 51
144.1562401208028
  0
CIRCLE
  5
1EB
330
1F
100
AcDbEntity
  8
NoLayerName_005
  6
Continuous
 62
     7
370
    50
100
AcDbCircle
 10
346.9529775238717
 20
367.9848802323239
 30
0.0
 40
14.0
  0
CIRCLE
  5
1EC
330
1F
100
AcDbEntity
  8
NoLayerName_005
  6
Continuous
 62
     7
370
    50
100
AcDbCircle
 10
346.9529775238717
 20
367.9848802323239
 30
0.0
 40
10.0
  0
CIRCLE
  5
1ED
330
1F
100
AcDbEntity
  8
NoLayerName_005
  6
Continuous
 62
     7
370
    50
100
AcDbCircle
 10
346.9529775238717
 20
367.9848802323239
 30
0.0
 40
8.5
  0
LINE
  5
1EE
330
1F
100
AcDbEntity
  8
NoLayerName_005
  6
Continuous
 62
     7
370
    50
100
AcDbLine
 10
355.3939490319387
 20
368.9848802323239
 30
0.0
 11
356.9248128614612
 21
368.7348802323239
 31
0.0
  0
LINE
  5
1EF
330
1F
100
AcDbEntity
  8
NoLayerName_005
  6
Continuous
 62
     7
370
    50
100
AcDbLine
 10
356.9248128614612
 20
367.2348802323239
 30
0.0
 11
355.3939490319387
 21
366.9848802323239
 31
0.0
  0
LINE
  5
1F0
330
1F
100
AcDbEntity
  8
NoLayerName_005
  6
Continuous
 62
     7
370
    50
100
AcDbLine
 10
341.8664663660537
 20
374.7949759909307
 30
0.0
 11
341.3175408022386
 21
376.2457429570319
 31
0.0
  0
LINE
  5
1F1
330
1F
100
AcDbEntity
  8
NoLayerName_005
  6
Continuous
 62
     7
370
    50
100
AcDbLine
 10
342.6165789079153
 20
376.9957429570318
 30
0.0
 11
343.5985171736226
 21
375.7949759909305
 31
0.0
  0
LINE
  5
1F2
330
1F
100
AcDbEntity
  8
NoLayerName_005
  6
Continuous
 62
     7
370
    50
100
AcDbLine
 10
343.5985171736226
 20
360.1747844737172
 30
0.0
 11
342.6165789079153
 21
358.9740175076159
 31
0.0
  0
LINE
  5
1F3
330
1F
100
AcDbEntity
  8
NoLayerName_005
  6
Continuous
 62
     7
370
    50
100
AcDbLine
 10
341.3175408022386
 20
359.7240175076159
 30
0.0
 11
341.8664663660537
 21
361.1747844737172
 31
0.0
  0
ARC
  5
1F4
330
1F
100
AcDbEntity
  8
NoLayerName_005
  6
Continuous
 62
     7
370
    50
100
AcDbCircle
 10
346.9529775238717
 20
367.9848802323239
 30
0.0
 40
9.0
100
AcDbArc
 50
245.8437598791973
 51
354.1562401208027
  0
ARC
  5
1F5
330
1F
100
AcDbEntity
  8
NoLayerName_005
  6
Continuous
 62
     7
370
    50
100
AcDbCircle
 10
346.9529775238717
 20
367.9848802323239
 30
0.0
 40
9.0
100
AcDbArc
 50
125.8437598791973
 51
234.1562401208027
  0
ARC
  5
1F6
330
1F
100
AcDbEntity
  8
NoLayerName_005
  6
Continuous
 62
     7
370
    50
100
AcDbCircle
 10
346.9529775238717
 20
367.9848802323239
 30
0.0
 40
9.0
100
AcDbArc
 50
5.843759879197241
 51
114.1562401208026
  0
CIRCLE
  5
1F7
330
1F
100
AcDbEntity
  8
NoLayerName_005
  6
Continuous
 62
     7
370
    50
100
AcDbCircle
 10
346.9529775238717
 20
333.9848802323239
 30
0.0
 40
10.0
  0
CIRCLE
  5
1F8
330
1F
100
AcDbEntity
  8
NoLayerName_005
  6
Continuous
 62
     7
370
    50
100
AcDbCircle
 10
346.9529775238717
 20
333.9848802323239
 30
0.0
 40
8.5
  0
LINE
  5
1F9
330
1F
100
AcDbEntity
  8
NoLayerName_005
  6
Continuous
 62
     7
370
    50
100
AcDbLine
 10
347.9529775238717
 20
325.5439087242568
 30
0.0
 11
347.7029775238717
 21
324.0130448947343
 31
0.0
  0
LINE
  5
1FA
330
1F
100
AcDbEntity
  8
NoLayerName_005
  6
Continuous
 62
     7
370
    50
100
AcDbLine
 10
346.2029775238717
 20
324.0130448947343
 30
0.0
 11
345.9529775238717
 21
325.5439087242568
 31
0.0
  0
LINE
  5
1FB
330
1F
100
AcDbEntity
  8
NoLayerName_005
  6
Continuous
 62
     7
370
    50
100
AcDbLine
 10
353.7630732824784
 20
339.0713913901418
 30
0.0
 11
355.2138402485797
 21
339.6203169539569
 31
0.0
  0
LINE
  5
1FC
330
1F
100
AcDbEntity
  8
NoLayerName_005
  6
Continuous
 62
     7
370
    50
100
AcDbLine
 10
355.9638402485796
 20
338.3212788482804
 30
0.0
 11
354.7630732824784
 21
337.339340582573
 31
0.0
  0
LINE
  5
1FD
330
1F
100
AcDbEntity
  8
NoLayerName_005
  6
Continuous
 62
     7
370
    50
100
AcDbLine
 10
339.142881765265
 20
337.339340582573
 30
0.0
 11
337.9421147991637
 21
338.3212788482803
 31
0.0
  0
LINE
  5
1FE
330
1F
100
AcDbEntity
  8
NoLayerName_005
  6
Continuous
 62
     7
370
    50
100
AcDbLine
 10
338.6921147991638
 20
339.6203169539569
 30
0.0
 11
340.142881765265
 21
339.0713913901418
 31
0.0
  0
ARC
  5
1FF
330
1F
100
AcDbEntity
  8
NoLayerName_005
  6
Continuous
 62
     7
370
    50
100
AcDbCircle
 10
346.9529775238717
 20
333.9848802323239
 30
0.0
 40
9.0
100
AcDbArc
 50
155.8437598791974
 51
264.1562401208027
  0
ARC
  5
200
330
1F
100
AcDbEntity
  8
NoLayerName_005
  6
Continuous
 62
     7
370
    50
100
AcDbCircle
 10
346.9529775238717
 20
333.9848802323239
 30
0.0
 40
9.0
100
AcDbArc
 50
35.84375987919731
 51
144.1562401208027
  0
ARC
  5
201
330
1F
100
AcDbEntity
  8
NoLayerName_005
  6
Continuous
 62
     7
370
    50
100
AcDbCircle
 10
346.9529775238717
 20
333.9848802323239
 30
0.0
 40
9.0
100
AcDbArc
 50
275.8437598791973
 51
24.15624012080263
  0
ARC
  5
202
330
1F
100
AcDbEntity
  8
NoLayerName_005
  6
Continuous
 62
     7
370
    50
100
AcDbCircle
 10
346.9529775238717
 20
333.9848802323239
 30
0.0
 40
14.0
100
AcDbArc
 50
221.0570155611867
 51
197.8569360772468
  0
CIRCLE
  5
203
330
1F
100
AcDbEntity
  8
NoLayerName_005
  6
Continuous
 62
     7
370
    50
100
AcDbCircle
 10
346.9529775238717
 20
401.9848802323239
 30
0.0
 40
10.0
  0
CIRCLE
  5
204
330
1F
100
AcDbEntity
  8
NoLayerName_005
  6
Continuous
 62
     7
370
    50
100
AcDbCircle
 10
346.9529775238717
 20
401.9848802323239
 30
0.0
 40
8.5
  0
LINE
  5
205
330
1F
100
AcDbEntity
  8
NoLayerName_005
  6
Continuous
 62
     7
370
    50
100
AcDbLine
 10
345.9529775238717
 20
410.425851740391
 30
0.0
 11
346.2029775238717
 21
411.9567155699135
 31
0.0
  0
LINE
  5
206
330
1F
100
AcDbEntity
  8
NoLayerName_005
  6
Continuous
 62
     7
370
    50
100
AcDbLine
 10
347.7029775238717
 20
411.9567155699134
 30
0.0
 11
347.9529775238717
 21
410.4258517403909
 31
0.0
  0
LINE
  5
207
330
1F
100
AcDbEntity
  8
NoLayerName_005
  6
Continuous
 62
     7
370
    50
100
AcDbLine
 10
340.142881765265
 20
396.8983690745059
 30
0.0
 11
338.6921147991637
 21
396.3494435106908
 31
0.0
  0
LINE
  5
208
330
1F
100
AcDbEntity
  8
NoLayerName_005
  6
Continuous
 62
     7
370
    50
100
AcDbLine
 10
337.9421147991638
 20
397.6484816163675
 30
0.0
 11
339.142881765265
 21
398.6304198820748
 31
0.0
  0
LINE
  5
209
330
1F
100
AcDbEntity
  8
NoLayerName_005
  6
Continuous
 62
     7
370
    50
100
AcDbLine
 10
354.7630732824784
 20
398.6304198820748
 30
0.0
 11
355.9638402485797
 21
397.6484816163674
 31
0.0
  0
LINE
  5
20A
330
1F
100
AcDbEntity
  8
NoLayerName_005
  6
Continuous
 62
     7
370
    50
100
AcDbLine
 10
355.2138402485796
 20
396.3494435106908
 30
0.0
 11
353.7630732824784
 21
396.8983690745059
 31
0.0
  0
ARC
  5
20B
330
1F
100
AcDbEntity
  8
NoLayerName_005
  6
Continuous
 62
     7
370
    50
100
AcDbCircle
 10
346.9529775238717
 20
401.9848802323239
 30
0.0
 40
9.0
100
AcDbArc
 50
335.8437598791974
 51
84.1562401208027
  0
ARC
  5
20C
330
1F
100
AcDbEntity
  8
NoLayerName_005
  6
Continuous
 62
     7
370
    50
100
AcDbCircle
 10
346.9529775238717
 20
401.9848802323239
 30
0.0
 40
9.0
100
AcDbArc
 50
215.8437598791973
 51
324.1562401208027
  0
ARC
  5
20D
330
1F
100
AcDbEntity
  8
NoLayerName_005
  6
Continuous
 62
     7
370
    50
100
AcDbCircle
 10
346.9529775238717
 20
401.9848802323239
 30
0.0
 40
9.0
100
AcDbArc
 50
95.84375987919724
 51
204.1562401208026
  0
ARC
  5
20E
330
1F
100
AcDbEntity
  8
NoLayerName_005
  6
Continuous
 62
     7
370
    50
100
AcDbCircle
 10
346.9529775238717
 20
401.9848802323239
 30
0.0
 40
14.0
100
AcDbArc
 50
162.1430639227532
 51
138.9429844388133
  0
LINE
  5
20F
330
1F
100
AcDbEntity
  8
NoLayerName_003
  6
CENTER
 62
    30
370
    25
100
AcDbLine
 10
221.0529767038717
 20
233.4311760617861
 30
0.0
 11
221.0529767038717
 21
226.9311759317861
 31
0.0
  0
LINE
  5
210
330
1F
100
AcDbEntity
  8
NoLayerName_003
  6
CENTER
 62
    30
370
    25
100
AcDbLine
 10
224.7196434438717
 20
230.0978426617861
 30
0.0
 11
217.5529766338717
 21
230.0978426617861
 31
0.0
  0
LINE
  5
211
330
1F
100
AcDbEntity
  8
NoLayerName_001
  6
Continuous
 62
     4
370
    50
100
AcDbLine
 10
218.9316563603121
 20
230.8049494429726
 30
0.0
 11
220.3458699226852
 21
232.2191630053457
 31
0.0
  0
LINE
  5
212
330
1F
100
AcDbEntity
  8
NoLayerName_001
  6
Continuous
 62
     4
370
    50
100
AcDbLine
 10
223.1742970474314
 20
229.3907358805995
 30
0.0
 11
221.7600834850583
 21
227.9765223182264
 31
0.0
  0
ARC
  5
213
330
1F
100
AcDbEntity
  8
NoLayerName_001
  6
Continuous
 62
     4
370
    50
100
AcDbCircle
 10
221.7600834850583
 20
230.8049494429726
 30
0.0
 40
1.999999999999986
100
AcDbArc
 50
315.0000000000003
 51
134.9999999999997
  0
ARC
  5
214
330
1F
100
AcDbEntity
  8
NoLayerName_001
  6
Continuous
 62
     4
370
    50
100
AcDbCircle
 10
220.3458699226852
 20
229.3907358805995
 30
0.0
 40
1.999999999999986
100
AcDbArc
 50
135.0000000000003
 51
315.0
  0
CIRCLE
  5
215
330
1F
100
AcDbEntity
  8
NoLayerName_005
  6
Continuous
 62
     7
370
    50
100
AcDbCircle
 10
254.5529770238717
 20
217.497843061786
 30
0.0
 40
10.0
  0
CIRCLE
  5
216
330
1F
100
AcDbEntity
  8
NoLayerName_005
  6
Continuous
 62
     7
370
    50
100
AcDbCircle
 10
254.5529770238717
 20
217.497843061786
 30
0.0
 40
8.5
  0
LINE
  5
217
330
1F
100
AcDbEntity
  8
NoLayerName_005
  6
Continuous
 62
     7
370
    50
100
AcDbLine
 10
253.5529770238717
 20
209.056871553719
 30
0.0
 11
253.8029770238717
 21
207.5260077241965
 31
0.0
  0
LINE
  5
218
330
1F
100
AcDbEntity
  8
NoLayerName_005
  6
Continuous
 62
     7
370
    50
100
AcDbLine
 10
255.3029770238717
 20
207.5260077241965
 30
0.0
 11
255.5529770238717
 21
209.056871553719
 31
0.0
  0
LINE
  5
219
330
1F
100
AcDbEntity
  8
NoLayerName_005
  6
Continuous
 62
     7
370
    50
100
AcDbLine
 10
247.7428812652649
 20
222.584354219604
 30
0.0
 11
246.2921142991637
 21
223.1332797834192
 31
0.0
  0
LINE
  5
21A
330
1F
100
AcDbEntity
  8
NoLayerName_005
  6
Continuous
 62
     7
370
    50
100
AcDbLine
 10
245.5421142991637
 20
221.8342416777425
 30
0.0
 11
246.7428812652649
 21
220.8523034120351
 31
0.0
  0
LINE
  5
21B
330
1F
100
AcDbEntity
  8
NoLayerName_005
  6
Continuous
 62
     7
370
    50
100
AcDbLine
 10
262.3630727824784
 20
220.8523034120351
 30
0.0
 11
263.5638397485797
 21
221.8342416777425
 31
0.0
  0
LINE
  5
21C
330
1F
100
AcDbEntity
  8
NoLayerName_005
  6
Continuous
 62
     7
370
    50
100
AcDbLine
 10
262.8138397485797
 20
223.1332797834192
 30
0.0
 11
261.3630727824784
 21
222.584354219604
 31
0.0
  0
ARC
  5
21D
330
1F
100
AcDbEntity
  8
NoLayerName_005
  6
Continuous
 62
     7
370
    50
100
AcDbCircle
 10
254.5529770238717
 20
217.497843061786
 30
0.0
 40
9.0
100
AcDbArc
 50
275.8437598791973
 51
24.15624012080266
  0
ARC
  5
21E
330
1F
100
AcDbEntity
  8
NoLayerName_005
  6
Continuous
 62
     7
370
    50
100
AcDbCircle
 10
254.5529770238717
 20
217.497843061786
 30
0.0
 40
9.0
100
AcDbArc
 50
155.8437598791974
 51
264.1562401208027
  0
CIRCLE
  5
21F
330
1F
100
AcDbEntity
  8
NoLayerName_005
  6
Continuous
 62
     7
370
    50
100
AcDbCircle
 10
227.5529770238717
 20
217.497843061786
 30
0.0
 40
10.0
  0
CIRCLE
  5
220
330
1F
100
AcDbEntity
  8
NoLayerName_005
  6
Continuous
 62
     7
370
    50
100
AcDbCircle
 10
227.5529770238717
 20
217.497843061786
 30
0.0
 40
8.5
  0
LINE
  5
221
330
1F
100
AcDbEntity
  8
NoLayerName_005
  6
Continuous
 62
     7
370
    50
100
AcDbLine
 10
219.1120055158046
 20
218.497843061786
 30
0.0
 11
217.5811416862821
 21
218.247843061786
 31
0.0
  0
LINE
  5
222
330
1F
100
AcDbEntity
  8
NoLayerName_005
  6
Continuous
 62
     7
370
    50
100
AcDbLine
 10
217.5811416862821
 20
216.747843061786
 30
0.0
 11
219.1120055158046
 21
216.497843061786
 31
0.0
  0
LINE
  5
223
330
1F
100
AcDbEntity
  8
NoLayerName_005
  6
Continuous
 62
     7
370
    50
100
AcDbLine
 10
232.6394881816896
 20
224.3079388203928
 30
0.0
 11
233.1884137455048
 21
225.758705786494
 31
0.0
  0
LINE
  5
224
330
1F
100
AcDbEntity
  8
NoLayerName_005
  6
Continuous
 62
     7
370
    50
100
AcDbLine
 10
231.8893756398281
 20
226.508705786494
 30
0.0
 11
230.9074373741208
 21
225.3079388203928
 31
0.0
  0
LINE
  5
225
330
1F
100
AcDbEntity
  8
NoLayerName_005
  6
Continuous
 62
     7
370
    50
100
AcDbLine
 10
230.9074373741208
 20
209.6877473031793
 30
0.0
 11
231.8893756398281
 21
208.4869803370781
 31
0.0
  0
LINE
  5
226
330
1F
100
AcDbEntity
  8
NoLayerName_005
  6
Continuous
 62
     7
370
    50
100
AcDbLine
 10
233.1884137455048
 20
209.2369803370781
 30
0.0
 11
232.6394881816896
 21
210.6877473031793
 31
0.0
  0
ARC
  5
227
330
1F
100
AcDbEntity
  8
NoLayerName_005
  6
Continuous
 62
     7
370
    50
100
AcDbCircle
 10
227.5529770238717
 20
217.497843061786
 30
0.0
 40
9.0
100
AcDbArc
 50
185.8437598791973
 51
294.1562401208026
  0
ARC
  5
228
330
1F
100
AcDbEntity
  8
NoLayerName_005
  6
Continuous
 62
     7
370
    50
100
AcDbCircle
 10
227.5529770238717
 20
217.497843061786
 30
0.0
 40
9.0
100
AcDbArc
 50
305.8437598791973
 51
54.1562401208027
  0
ARC
  5
229
330
1F
100
AcDbEntity
  8
NoLayerName_005
  6
Continuous
 62
     7
370
    50
100
AcDbCircle
 10
227.5529770238717
 20
217.497843061786
 30
0.0
 40
9.0
100
AcDbArc
 50
65.84375987919738
 51
174.1562401208028
  0
ARC
  5
22A
330
1F
100
AcDbEntity
  8
NoLayerName_005
  6
Continuous
 62
     7
370
    50
100
AcDbCircle
 10
227.5529770238717
 20
217.497843061786
 30
0.0
 40
14.0
100
AcDbArc
 50
129.4265657114387
 51
324.8151508756368
  0
ARC
  5
22B
330
1F
100
AcDbEntity
  8
NoLayerName_005
  6
Continuous
 62
     7
370
    50
100
AcDbCircle
 10
254.5529770238717
 20
217.497843061786
 30
0.0
 40
14.0
100
AcDbArc
 50
215.1848491243633
 51
144.8151508756368
  0
ARC
  5
22C
330
1F
100
AcDbEntity
  8
NoLayerName_005
  6
Continuous
 62
     7
370
    50
100
AcDbCircle
 10
227.5529770238717
 20
217.497843061786
 30
0.0
 40
14.0
100
AcDbArc
 50
35.18484912436319
 51
105.7488953702739
  0
ARC
  5
22D
330
1F
100
AcDbEntity
  8
NoLayerName_005
  6
Continuous
 62
     7
370
    50
100
AcDbCircle
 10
241.0529770238717
 20
207.9799859189289
 30
0.0
 40
2.517857142857139
100
AcDbArc
 50
35.18484912436319
 51
144.8151508756368
  0
ARC
  5
22E
330
1F
100
AcDbEntity
  8
NoLayerName_005
  6
Continuous
 62
     7
370
    50
100
AcDbCircle
 10
241.0529770238717
 20
227.0157002046432
 30
0.0
 40
2.517857142857139
100
AcDbArc
 50
215.1848491243632
 51
324.8151508756368
  0
ARC
  5
22F
330
1F
100
AcDbEntity
  8
NoLayerName_005
  6
Continuous
 62
     7
370
    50
100
AcDbCircle
 10
254.5529770238717
 20
217.497843061786
 30
0.0
 40
9.0
100
AcDbArc
 50
35.84375987919724
 51
144.1562401208027
  0
CIRCLE
  5
230
330
1F
100
AcDbEntity
  8
NoLayerName_005
  6
Continuous
 62
     7
370
    50
100
AcDbCircle
 10
191.0529761038717
 20
217.497843061786
 30
0.0
 40
8.5
  0
LINE
  5
231
330
1F
100
AcDbEntity
  8
NoLayerName_005
  6
Continuous
 62
     7
370
    50
100
AcDbLine
 10
197.8630718624784
 20
222.584354219604
 30
0.0
 11
199.3138388285796
 21
223.1332797834192
 31
0.0
  0
LINE
  5
232
330
1F
100
AcDbEntity
  8
NoLayerName_005
  6
Continuous
 62
     7
370
    50
100
AcDbLine
 10
198.8630718624784
 20
220.8523034120351
 30
0.0
 11
200.0638388285796
 21
221.8342416777425
 31
0.0
  0
LINE
  5
233
330
1F
100
AcDbEntity
  8
NoLayerName_005
  6
Continuous
 62
     7
370
    50
100
AcDbLine
 10
192.0529761038717
 20
209.056871553719
 30
0.0
 11
191.8029761038717
 21
207.5260077241965
 31
0.0
  0
CIRCLE
  5
234
330
1F
100
AcDbEntity
  8
NoLayerName_005
  6
Continuous
 62
     7
370
    50
100
AcDbCircle
 10
191.0529761038717
 20
217.497843061786
 30
0.0
 40
14.0
  0
INSERT
  5
235
330
1F
100
AcDbEntity
  8
NoLayerName_001
 62
     0
100
AcDbBlockReference
  2
JZB_0001
 10
113.9129791259766
 20
355.3448791503906
 30
0.0
  0
INSERT
  5
236
330
1F
100
AcDbEntity
  8
NoLayerName_001
 62
     0
100
AcDbBlockReference
  2
JZB_0002
 10
113.9129791259766
 20
369.3448791503906
 30
0.0
  0
INSERT
  5
237
330
1F
100
AcDbEntity
  8
NoLayerName_001
 62
     0
100
AcDbBlockReference
  2
JZB_0003
 10
256.9129943847656
 20
369.3448791503906
 30
0.0
  0
INSERT
  5
238
330
1F
100
AcDbEntity
  8
NoLayerName_001
 62
     0
100
AcDbBlockReference
  2
JZB_0004
 10
256.9129943847656
 20
355.3448791503906
 30
0.0
  0
LINE
  5
239
330
1F
100
AcDbEntity
  8
NoLayerName_007
  6
Continuous
 62
     7
370
   100
100
AcDbLine
 10
372.0
 20
80.0
 30
0.0
 11
372.0
 21
40.0
 31
0.0
  0
LINE
  5
23A
330
1F
100
AcDbEntity
  8
NoLayerName_007
  6
Continuous
 62
     7
370
    25
100
AcDbLine
 10
253.0
 20
54.0
 30
0.0
 11
372.0
 21
54.0
 31
0.0
  0
LINE
  5
23B
330
1F
100
AcDbEntity
  8
NoLayerName_007
  6
Continuous
 62
     7
370
    25
100
AcDbLine
 10
275.0
 20
80.0
 30
0.0
 11
275.0
 21
40.0
 31
0.0
  0
LINE
  5
23C
330
1F
100
AcDbEntity
  8
NoLayerName_007
  6
Continuous
 62
     7
370
   100
100
AcDbLine
 10
253.0
 20
80.0
 30
0.0
 11
253.0
 21
40.0
 31
0.0
  0
LINE
  5
23D
330
1F
100
AcDbEntity
  8
NoLayerName_007
  6
Continuous
 62
     7
370
   100
100
AcDbLine
 10
253.0
 20
40.0
 30
0.0
 11
372.0
 21
40.0
 31
0.0
  0
LINE
  5
23E
330
1F
100
AcDbEntity
  8
NoLayerName_007
  6
Continuous
 62
     7
370
   100
100
AcDbLine
 10
372.0
 20
80.0
 30
0.0
 11
253.0
 21
80.0
 31
0.0
  0
MTEXT
  5
23F
330
1F
100
AcDbEntity
  8
NoLayerName_007
 62
     7
370
    50
100
AcDbMText
 10
255.2960004806519
 20
63.79999995231628
 30
0.0
 40
4.413793169218918
 41
0.0
 71
     7
 72
     5
  1
\fＭＳ Ｐゴシック|b0|c128|p50;\A1;品　名
 73
     1
 44
1.299389002163688
1001
ACAD
1000
ACAD_MTEXT_DEFINED_HEIGHT_BEGIN
1070
    46
1040
3.200000047683716
1000
ACAD_MTEXT_DEFINED_HEIGHT_END
  0
MTEXT
  5
240
330
1F
100
AcDbEntity
  8
NoLayerName_006
 62
     7
370
    50
100
AcDbMText
 10
323.5000003707388
 20
67.00000004768371
 30
0.0
 40
4.413793169218918
 41
0.0
 71
     5
 72
     5
  1
\fＭＳ Ｐゴシック|b0|c128|p50;\A1;セパレートボックス\P３個用　Ｈ：４０
 73
     1
 44
0.9745417371009623
1001
ACAD
1000
ACAD_MTEXT_DEFINED_HEIGHT_BEGIN
1070
    46
1040
6.400000095367432
1000
ACAD_MTEXT_DEFINED_HEIGHT_END
  0
MTEXT
  5
241
330
1F
100
AcDbEntity
  8
NoLayerName_007
 62
     7
370
    50
100
AcDbMText
 10
255.2960004806519
 20
43.79999995231628
 30
0.0
 40
4.413793169218918
 41
0.0
 71
     7
 72
     5
  1
\fＭＳ Ｐゴシック|b0|c128|p50;\A1;品　番
 73
     1
 44
1.299389002163688
1001
ACAD
1000
ACAD_MTEXT_DEFINED_HEIGHT_BEGIN
1070
    46
1040
3.200000047683716
1000
ACAD_MTEXT_DEFINED_HEIGHT_END
  0
MTEXT
  5
242
330
1F
100
AcDbEntity
  8
NoLayerName_001
 62
     7
370
    50
100
AcDbMText
 10
323.4999999446541
 20
47.00000004768371
 30
0.0
 40
4.413793169218918
 41
0.0
 71
     5
 72
     5
  1
\fＭＳ Ｐゴシック|b0|c128|p50;\A1;ＳＢ３４０ＢＳ
 73
     1
 44
1.299389002163688
1001
ACAD
1000
ACAD_MTEXT_DEFINED_HEIGHT_BEGIN
1070
    46
1040
3.200000047683716
1000
ACAD_MTEXT_DEFINED_HEIGHT_END
  0
ENDSEC
  0
SECTION
  2
OBJECTS
  0
DICTIONARY
  5
C
330
0
100
AcDbDictionary
281
     1
  3
ACAD_GROUP
350
D
  3
ACAD_LAYOUT
350
1A
  3
ACAD_MATERIAL
350
3B
  3
ACAD_MLEADERSTYLE
350
267
  3
ACAD_MLINESTYLE
350
17
  3
ACAD_PLOTSETTINGS
350
19
  3
ACAD_PLOTSTYLENAME
350
E
  3
ACAD_SCALELIST
350
243
  3
ACAD_VISUALSTYLE
350
2A
  3
AcDbVariableDictionary
350
265
  3
DWGPROPS
350
26D
  0
DICTIONARY
  5
D
102
{ACAD_REACTORS
330
C
102
}
330
C
100
AcDbDictionary
281
     1
  0
DICTIONARY
  5
1A
102
{ACAD_REACTORS
330
C
102
}
330
C
100
AcDbDictionary
281
     1
  3
Layout1
350
1E
  3
Model
350
22
  0
DICTIONARY
  5
3B
102
{ACAD_REACTORS
330
C
102
}
330
C
100
AcDbDictionary
281
     1
  3
ByBlock
350
3D
  3
ByLayer
350
3C
  3
Global
350
3E
  0
DICTIONARY
  5
267
102
{ACAD_REACTORS
330
C
102
}
330
C
100
AcDbDictionary
281
     1
  0
DICTIONARY
  5
17
102
{ACAD_REACTORS
330
C
102
}
330
C
100
AcDbDictionary
281
     1
  3
Standard
350
18
  0
DICTIONARY
  5
19
102
{ACAD_REACTORS
330
C
102
}
330
C
100
AcDbDictionary
281
     1
  0
ACDBDICTIONARYWDFLT
  5
E
102
{ACAD_REACTORS
330
C
102
}
330
C
100
AcDbDictionary
281
     1
  3
Normal
350
F
100
AcDbDictionaryWithDefault
340
F
  0
DICTIONARY
  5
243
102
{ACAD_REACTORS
330
C
102
}
330
C
100
AcDbDictionary
281
     1
  3
A0
350
244
  3
A1
350
245
  3
A2
350
246
  3
A3
350
247
  3
A4
350
248
  3
A5
350
249
  3
A6
350
24A
  3
A7
350
24B
  3
A8
350
24C
  3
A9
350
24D
  3
B0
350
24E
  3
B1
350
24F
  3
B2
350
250
  3
B3
350
251
  3
B4
350
252
  3
B5
350
253
  3
B6
350
254
  3
B7
350
255
  3
B8
350
256
  3
B9
350
257
  3
C0
350
258
  3
C1
350
259
  3
C2
350
25A
  3
C3
350
25B
  3
C4
350
25C
  3
C5
350
25D
  3
C6
350
25E
  3
C7
350
25F
  3
C8
350
260
  3
C9
350
261
  3
D0
350
262
  3
D1
350
263
  3
D2
350
264
  0
DICTIONARY
  5
2A
102
{ACAD_REACTORS
330
C
102
}
330
C
100
AcDbDictionary
281
     1
  3
2dWireframe
350
2F
  3
3D Hidden
350
31
  3
3dWireframe
350
30
  3
Basic
350
32
  3
Brighten
350
36
  3
ColorChange
350
3A
  3
Conceptual
350
34
  3
Dim
350
35
  3
Facepattern
350
39
  3
Flat
350
2B
  3
FlatWithEdges
350
2C
  3
Gouraud
350
2D
  3
GouraudWithEdges
350
2E
  3
Linepattern
350
38
  3
Realistic
350
33
  3
Thicken
350
37
  0
DICTIONARY
  5
265
102
{ACAD_REACTORS
330
C
102
}
330
C
100
AcDbDictionary
281
     1
  3
CANNOSCALE
350
26A
  3
DIMASSOC
350
26B
  3
HIDETEXT
350
26C
  3
PSOLHEIGHT
350
269
  3
PSOLWIDTH
350
268
  0
XRECORD
  5
26D
102
{ACAD_REACTORS
330
C
102
}
330
C
100
AcDbXrecord
280
     1
  1
DWGPROPS COOKIE
  2

  3

  4

  6
File was created by TR2_DExp
  7

  8

  9

300
=
301
=
302
=
303
=
304
=
305
=
306
=
307
=
308
=
309
=
 40
0.0
 41
2457922.346506667
 42
2457922.346507211
  1

 90
        0
  0
LAYOUT
  5
1E
102
{ACAD_REACTORS
330
1A
102
}
330
1A
100
AcDbPlotSettings
  1

  2
none_device
  4

  6

 40
0.0
 41
0.0
 42
0.0
 43
0.0
 44
0.0
 45
0.0
 46
0.0
 47
0.0
 48
0.0
 49
0.0
140
0.0
141
0.0
142
1.0
143
1.0
 70
   688
 72
     0
 73
     0
 74
     5
  7

 75
    16
147
1.0
148
0.0
149
0.0
100
AcDbLayout
  1
Layout1
 70
     0
 71
     1
 10
0.0
 20
0.0
 11
420.0
 21
297.0
 12
0.0
 22
0.0
 32
0.0
 14
1.000000000000000E+20
 24
1.000000000000000E+20
 34
1.000000000000000E+20
 15
-1.000000000000000E+20
 25
-1.000000000000000E+20
 35
-1.000000000000000E+20
146
0.0
 13
0.0
 23
0.0
 33
0.0
 16
1.0
 26
0.0
 36
0.0
 17
0.0
 27
1.0
 37
0.0
 76
     0
330
1B
  0
LAYOUT
  5
22
102
{ACAD_REACTORS
330
1A
102
}
330
1A
100
AcDbPlotSettings
  1

  2
none_device
  4

  6

 40
0.0
 41
0.0
 42
0.0
 43
0.0
 44
0.0
 45
0.0
 46
0.0
 47
0.0
 48
0.0
 49
0.0
140
0.0
141
0.0
142
1.0
143
1.0
 70
  1712
 72
     0
 73
     0
 74
     0
  7

 75
     0
147
1.0
148
0.0
149
0.0
100
AcDbLayout
  1
Model
 70
     1
 71
     0
 10
96.55297421387166
 20
40.0
 11
372.0
 21
434.3617301569658
 12
0.0
 22
0.0
 32
0.0
 14
96.55297421387166
 24
40.0
 34
0.0
 15
372.0
 25
434.3617301569658
 35
0.0
146
0.0
 13
0.0
 23
0.0
 33
0.0
 16
1.0
 26
0.0
 36
0.0
 17
0.0
 27
1.0
 37
0.0
 76
     0
330
1F
331
29
  0
MATERIAL
  5
3D
102
{ACAD_REACTORS
330
3B
102
}
102
{ACAD_XDICTIONARY
360
290
102
}
330
3B
100
AcDbMaterial
  1
ByBlock
  0
MATERIAL
  5
3C
102
{ACAD_REACTORS
330
3B
102
}
102
{ACAD_XDICTIONARY
360
28E
102
}
330
3B
100
AcDbMaterial
  1
ByLayer
  0
MATERIAL
  5
3E
102
{ACAD_REACTORS
330
3B
102
}
102
{ACAD_XDICTIONARY
360
292
102
}
330
3B
100
AcDbMaterial
  1
Global
  0
MLINESTYLE
  5
18
102
{ACAD_REACTORS
330
17
102
}
330
17
100
AcDbMlineStyle
  2
Standard
 70
     0
  3

 62
   256
 51
90.0
 52
90.0
 71
     2
 49
0.5
 62
   256
  6
BYLAYER
 49
-0.5
 62
   256
  6
BYLAYER
  0
ACDBPLACEHOLDER
  5
F
102
{ACAD_REACTORS
330
E
102
}
330
E
  0
SCALE
  5
244
102
{ACAD_REACTORS
330
243
102
}
330
243
100
AcDbScale
 70
     0
300
1:1
140
1.0
141
1.0
290
     1
  0
SCALE
  5
245
102
{ACAD_REACTORS
330
243
102
}
330
243
100
AcDbScale
 70
     0
300
1:2
140
1.0
141
2.0
290
     0
  0
SCALE
  5
246
102
{ACAD_REACTORS
330
243
102
}
330
243
100
AcDbScale
 70
     0
300
1:4
140
1.0
141
4.0
290
     0
  0
SCALE
  5
247
102
{ACAD_REACTORS
330
243
102
}
330
243
100
AcDbScale
 70
     0
300
1:5
140
1.0
141
5.0
290
     0
  0
SCALE
  5
248
102
{ACAD_REACTORS
330
243
102
}
330
243
100
AcDbScale
 70
     0
300
1:8
140
1.0
141
8.0
290
     0
  0
SCALE
  5
249
102
{ACAD_REACTORS
330
243
102
}
330
243
100
AcDbScale
 70
     0
300
1:10
140
1.0
141
10.0
290
     0
  0
SCALE
  5
24A
102
{ACAD_REACTORS
330
243
102
}
330
243
100
AcDbScale
 70
     0
300
1:16
140
1.0
141
16.0
290
     0
  0
SCALE
  5
24B
102
{ACAD_REACTORS
330
243
102
}
330
243
100
AcDbScale
 70
     0
300
1:20
140
1.0
141
20.0
290
     0
  0
SCALE
  5
24C
102
{ACAD_REACTORS
330
243
102
}
330
243
100
AcDbScale
 70
     0
300
1:30
140
1.0
141
30.0
290
     0
  0
SCALE
  5
24D
102
{ACAD_REACTORS
330
243
102
}
330
243
100
AcDbScale
 70
     0
300
1:40
140
1.0
141
40.0
290
     0
  0
SCALE
  5
24E
102
{ACAD_REACTORS
330
243
102
}
330
243
100
AcDbScale
 70
     0
300
1:50
140
1.0
141
50.0
290
     0
  0
SCALE
  5
24F
102
{ACAD_REACTORS
330
243
102
}
330
243
100
AcDbScale
 70
     0
300
1:100
140
1.0
141
100.0
290
     0
  0
SCALE
  5
250
102
{ACAD_REACTORS
330
243
102
}
330
243
100
AcDbScale
 70
     0
300
2:1
140
2.0
141
1.0
290
     0
  0
SCALE
  5
251
102
{ACAD_REACTORS
330
243
102
}
330
243
100
AcDbScale
 70
     0
300
4:1
140
4.0
141
1.0
290
     0
  0
SCALE
  5
252
102
{ACAD_REACTORS
330
243
102
}
330
243
100
AcDbScale
 70
     0
300
8:1
140
8.0
141
1.0
290
     0
  0
SCALE
  5
253
102
{ACAD_REACTORS
330
243
102
}
330
243
100
AcDbScale
 70
     0
300
10:1
140
10.0
141
1.0
290
     0
  0
SCALE
  5
254
102
{ACAD_REACTORS
330
243
102
}
330
243
100
AcDbScale
 70
     0
300
100:1
140
100.0
141
1.0
290
     0
  0
SCALE
  5
255
102
{ACAD_REACTORS
330
243
102
}
330
243
100
AcDbScale
 70
     0
300
1/128" = 1'-0"
140
0.0078125
141
12.0
290
     0
  0
SCALE
  5
256
102
{ACAD_REACTORS
330
243
102
}
330
243
100
AcDbScale
 70
     0
300
1/64" = 1'-0"
140
0.015625
141
12.0
290
     0
  0
SCALE
  5
257
102
{ACAD_REACTORS
330
243
102
}
330
243
100
AcDbScale
 70
     0
300
1/32" = 1'-0"
140
0.03125
141
12.0
290
     0
  0
SCALE
  5
258
102
{ACAD_REACTORS
330
243
102
}
330
243
100
AcDbScale
 70
     0
300
1/16" = 1'-0"
140
0.0625
141
12.0
290
     0
  0
SCALE
  5
259
102
{ACAD_REACTORS
330
243
102
}
330
243
100
AcDbScale
 70
     0
300
3/32" = 1'-0"
140
0.09375
141
12.0
290
     0
  0
SCALE
  5
25A
102
{ACAD_REACTORS
330
243
102
}
330
243
100
AcDbScale
 70
     0
300
1/8" = 1'-0"
140
0.125
141
12.0
290
     0
  0
SCALE
  5
25B
102
{ACAD_REACTORS
330
243
102
}
330
243
100
AcDbScale
 70
     0
300
3/16" = 1'-0"
140
0.1875
141
12.0
290
     0
  0
SCALE
  5
25C
102
{ACAD_REACTORS
330
243
102
}
330
243
100
AcDbScale
 70
     0
300
1/4" = 1'-0"
140
0.25
141
12.0
290
     0
  0
SCALE
  5
25D
102
{ACAD_REACTORS
330
243
102
}
330
243
100
AcDbScale
 70
     0
300
3/8" = 1'-0"
140
0.375
141
12.0
290
     0
  0
SCALE
  5
25E
102
{ACAD_REACTORS
330
243
102
}
330
243
100
AcDbScale
 70
     0
300
1/2" = 1'-0"
140
0.5
141
12.0
290
     0
  0
SCALE
  5
25F
102
{ACAD_REACTORS
330
243
102
}
330
243
100
AcDbScale
 70
     0
300
3/4" = 1'-0"
140
0.75
141
12.0
290
     0
  0
SCALE
  5
260
102
{ACAD_REACTORS
330
243
102
}
330
243
100
AcDbScale
 70
     0
300
1" = 1'-0"
140
1.0
141
12.0
290
     0
  0
SCALE
  5
261
102
{ACAD_REACTORS
330
243
102
}
330
243
100
AcDbScale
 70
     0
300
1-1/2" = 1'-0"
140
1.5
141
12.0
290
     0
  0
SCALE
  5
262
102
{ACAD_REACTORS
330
243
102
}
330
243
100
AcDbScale
 70
     0
300
3" = 1'-0"
140
3.0
141
12.0
290
     0
  0
SCALE
  5
263
102
{ACAD_REACTORS
330
243
102
}
330
243
100
AcDbScale
 70
     0
300
6" = 1'-0"
140
6.0
141
12.0
290
     0
  0
SCALE
  5
264
102
{ACAD_REACTORS
330
243
102
}
330
243
100
AcDbScale
 70
     0
300
1'-0" = 1'-0"
140
12.0
141
12.0
290
     0
  0
VISUALSTYLE
  5
2F
102
{ACAD_REACTORS
330
2A
102
}
102
{ACAD_XDICTIONARY
360
276
102
}
330
2A
100
AcDbVisualStyle
  2
2dWireframe
 70
     4
 71
     0
 72
     2
 73
     0
 90
        0
 40
-0.6
 41
-30.0
 62
     5
 63
     7
 74
     1
 91
        4
 64
     7
 65
   257
 75
     1
175
     1
 42
1.0
 92
        0
 66
   257
 43
1.0
 76
     1
 77
     6
 78
     2
 67
     7
 79
     5
170
     0
171
     0
290
     0
174
     0
 93
        1
 44
0.0
173
     0
291
     0
 45
0.0
1001
ACAD
1000
AcDbSavedByObjectVersion
1070
     0
  0
VISUALSTYLE
  5
31
102
{ACAD_REACTORS
330
2A
102
}
102
{ACAD_XDICTIONARY
360
27A
102
}
330
2A
100
AcDbVisualStyle
  2
3D Hidden
 70
     6
 71
     1
 72
     2
 73
     2
 90
        0
 40
-0.6
 41
-30.0
 62
     5
 63
     7
 74
     2
 91
        2
 64
     7
 65
   257
 75
     2
175
     1
 42
40.0
 92
        0
 66
   257
 43
1.0
 76
     1
 77
     6
 78
     2
 67
     7
 79
     3
170
     0
171
     0
290
     0
174
     0
 93
        1
 44
0.0
173
     0
291
     0
 45
0.0
1001
ACAD
1000
AcDbSavedByObjectVersion
1070
     0
  0
VISUALSTYLE
  5
30
102
{ACAD_REACTORS
330
2A
102
}
102
{ACAD_XDICTIONARY
360
278
102
}
330
2A
100
AcDbVisualStyle
  2
3dWireframe
 70
     5
 71
     0
 72
     2
 73
     0
 90
        0
 40
-0.6
 41
-30.0
 62
     5
 63
     7
 74
     1
 91
        4
 64
     7
 65
   257
 75
     1
175
     1
 42
1.0
 92
        0
 66
   257
 43
1.0
 76
     1
 77
     6
 78
     2
 67
     7
 79
     5
170
     0
171
     0
290
     0
174
     0
 93
        1
 44
0.0
173
     0
291
     0
 45
0.0
1001
ACAD
1000
AcDbSavedByObjectVersion
1070
     0
  0
VISUALSTYLE
  5
32
102
{ACAD_REACTORS
330
2A
102
}
102
{ACAD_XDICTIONARY
360
27C
102
}
330
2A
100
AcDbVisualStyle
  2
Basic
 70
     7
 71
     1
 72
     0
 73
     1
 90
        0
 40
-0.6
 41
-30.0
 62
     5
 63
     7
 74
     0
 91
        4
 64
     7
 65
   257
 75
     1
175
     1
 42
1.0
 92
        8
 66
     7
 43
1.0
 76
     1
 77
     6
 78
     2
 67
     7
 79
     5
170
     0
171
     0
290
     0
174
     0
 93
        1
 44
0.0
173
     0
291
     1
 45
0.0
1001
ACAD
1000
AcDbSavedByObjectVersion
1070
     0
  0
VISUALSTYLE
  5
36
102
{ACAD_REACTORS
330
2A
102
}
102
{ACAD_XDICTIONARY
360
284
102
}
330
2A
100
AcDbVisualStyle
  2
Brighten
 70
    12
 71
     2
 72
     2
 73
     0
 90
        0
 40
-0.6
 41
-30.0
 62
     5
 63
     7
 74
     1
 91
        4
 64
     7
 65
   257
 75
     1
175
     1
 42
1.0
 92
        8
 66
     7
 43
1.0
 76
     1
 77
     6
 78
     2
 67
     7
 79
     5
170
     0
171
     0
290
     0
174
     0
 93
        1
 44
50.0
173
     0
291
     1
 45
0.0
1001
ACAD
1000
AcDbSavedByObjectVersion
1070
     0
  0
VISUALSTYLE
  5
3A
102
{ACAD_REACTORS
330
2A
102
}
102
{ACAD_XDICTIONARY
360
28C
102
}
330
2A
100
AcDbVisualStyle
  2
ColorChange
 70
    16
 71
     2
 72
     2
 73
     3
 90
        0
 40
-0.6
 41
-30.0
 62
     5
 63
     8
 74
     1
 91
        4
 64
     7
 65
   257
 75
     1
175
     1
 42
1.0
 92
        8
 66
     8
 43
1.0
 76
     1
 77
     6
 78
     2
 67
     7
 79
     5
170
     0
171
     0
290
     0
174
     0
 93
        1
 44
0.0
173
     0
291
     1
 45
0.0
1001
ACAD
1000
AcDbSavedByObjectVersion
1070
     0
  0
VISUALSTYLE
  5
34
102
{ACAD_REACTORS
330
2A
102
}
102
{ACAD_XDICTIONARY
360
280
102
}
330
2A
100
AcDbVisualStyle
  2
Conceptual
 70
     9
 71
     3
 72
     2
 73
     0
 90
        0
 40
-0.6
 41
-30.0
 62
     5
 63
     7
 74
     2
 91
        2
 64
     7
 65
   257
 75
     1
175
     1
 42
40.0
 92
        8
 66
     7
 43
1.0
 76
     1
 77
     6
 78
     2
 67
     7
 79
     3
170
     0
171
     0
290
     0
174
     0
 93
        1
 44
0.0
173
     0
291
     0
 45
0.0
1001
ACAD
1000
AcDbSavedByObjectVersion
1070
     0
  0
VISUALSTYLE
  5
35
102
{ACAD_REACTORS
330
2A
102
}
102
{ACAD_XDICTIONARY
360
282
102
}
330
2A
100
AcDbVisualStyle
  2
Dim
 70
    11
 71
     2
 72
     2
 73
     0
 90
        0
 40
-0.6
 41
-30.0
 62
     5
 63
     7
 74
     1
 91
        4
 64
     7
 65
   257
 75
     1
175
     1
 42
1.0
 92
        8
 66
     7
 43
1.0
 76
     1
 77
     6
 78
     2
 67
     7
 79
     5
170
     0
171
     0
290
     0
174
     0
 93
        1
 44
-50.0
173
     0
291
     1
 45
0.0
1001
ACAD
1000
AcDbSavedByObjectVersion
1070
     0
  0
VISUALSTYLE
  5
39
102
{ACAD_REACTORS
330
2A
102
}
102
{ACAD_XDICTIONARY
360
28A
102
}
330
2A
100
AcDbVisualStyle
  2
Facepattern
 70
    15
 71
     2
 72
     2
 73
     0
 90
        0
 40
-0.6
 41
-30.0
 62
     5
 63
     7
 74
     1
 91
        4
 64
     7
 65
   257
 75
     1
175
     1
 42
1.0
 92
        8
 66
     7
 43
1.0
 76
     1
 77
     6
 78
     2
 67
     7
 79
     5
170
     0
171
     0
290
     0
174
     0
 93
        1
 44
0.0
173
     0
291
     1
 45
0.0
1001
ACAD
1000
AcDbSavedByObjectVersion
1070
     0
  0
VISUALSTYLE
  5
2B
102
{ACAD_REACTORS
330
2A
102
}
102
{ACAD_XDICTIONARY
360
26E
102
}
330
2A
100
AcDbVisualStyle
  2
Flat
 70
     0
 71
     2
 72
     1
 73
     1
 90
        2
 40
-0.6
 41
30.0
 62
     5
 63
     7
 74
     0
 91
        4
 64
     7
 65
   257
 75
     1
175
     1
 42
1.0
 92
        8
 66
     7
 43
1.0
 76
     1
 77
     6
 78
     2
 67
     7
 79
     5
170
     0
171
     0
290
     0
174
     0
 93
       13
 44
0.0
173
     0
291
     1
 45
0.0
1001
ACAD
1000
AcDbSavedByObjectVersion
1070
     0
  0
VISUALSTYLE
  5
2C
102
{ACAD_REACTORS
330
2A
102
}
102
{ACAD_XDICTIONARY
360
270
102
}
330
2A
100
AcDbVisualStyle
  2
FlatWithEdges
 70
     1
 71
     2
 72
     1
 73
     1
 90
        2
 40
-0.6
 41
30.0
 62
     5
 63
     7
 74
     1
 91
        4
 64
     7
 65
   257
 75
     1
175
     1
 42
1.0
 92
        0
 66
   257
 43
1.0
 76
     1
 77
     6
 78
     2
 67
     7
 79
     5
170
     0
171
     0
290
     0
174
     0
 93
       13
 44
0.0
173
     0
291
     1
 45
0.0
1001
ACAD
1000
AcDbSavedByObjectVersion
1070
     0
  0
VISUALSTYLE
  5
2D
102
{ACAD_REACTORS
330
2A
102
}
102
{ACAD_XDICTIONARY
360
272
102
}
330
2A
100
AcDbVisualStyle
  2
Gouraud
 70
     2
 71
     2
 72
     2
 73
     1
 90
        2
 40
-0.6
 41
30.0
 62
     5
 63
     7
 74
     0
 91
        4
 64
     7
 65
   257
 75
     1
175
     1
 42
1.0
 92
        0
 66
     7
 43
1.0
 76
     1
 77
     6
 78
     2
 67
     7
 79
     5
170
     0
171
     0
290
     0
174
     0
 93
       13
 44
0.0
173
     0
291
     1
 45
0.0
1001
ACAD
1000
AcDbSavedByObjectVersion
1070
     0
  0
VISUALSTYLE
  5
2E
102
{ACAD_REACTORS
330
2A
102
}
102
{ACAD_XDICTIONARY
360
274
102
}
330
2A
100
AcDbVisualStyle
  2
GouraudWithEdges
 70
     3
 71
     2
 72
     2
 73
     1
 90
        2
 40
-0.6
 41
30.0
 62
     5
 63
     7
 74
     1
 91
        4
 64
     7
 65
   257
 75
     1
175
     1
 42
1.0
 92
        0
 66
   257
 43
1.0
 76
     1
 77
     6
 78
     2
 67
     7
 79
     5
170
     0
171
     0
290
     0
174
     0
 93
       13
 44
0.0
173
     0
291
     1
 45
0.0
1001
ACAD
1000
AcDbSavedByObjectVersion
1070
     0
  0
VISUALSTYLE
  5
38
102
{ACAD_REACTORS
330
2A
102
}
102
{ACAD_XDICTIONARY
360
288
102
}
330
2A
100
AcDbVisualStyle
  2
Linepattern
 70
    14
 71
     2
 72
     2
 73
     0
 90
        0
 40
-0.6
 41
-30.0
 62
     5
 63
     7
 74
     1
 91
        4
 64
     7
 65
   257
 75
     7
175
     7
 42
1.0
 92
        8
 66
     7
 43
1.0
 76
     1
 77
     6
 78
     2
 67
     7
 79
     5
170
     0
171
     0
290
     0
174
     0
 93
        1
 44
0.0
173
     0
291
     1
 45
0.0
1001
ACAD
1000
AcDbSavedByObjectVersion
1070
     0
  0
VISUALSTYLE
  5
33
102
{ACAD_REACTORS
330
2A
102
}
102
{ACAD_XDICTIONARY
360
27E
102
}
330
2A
100
AcDbVisualStyle
  2
Realistic
 70
     8
 71
     2
 72
     2
 73
     0
 90
        0
 40
-0.6
 41
-30.0
 62
     5
 63
     7
 74
     1
 91
        0
 64
     7
 65
   257
 75
     1
175
     1
 42
1.0
 92
        8
 66
     8
 43
1.0
 76
     1
 77
     6
 78
     2
 67
     7
 79
     5
170
     0
171
     0
290
     0
174
     0
 93
       13
 44
0.0
173
     0
291
     0
 45
0.0
1001
ACAD
1000
AcDbSavedByObjectVersion
1070
     0
  0
VISUALSTYLE
  5
37
102
{ACAD_REACTORS
330
2A
102
}
102
{ACAD_XDICTIONARY
360
286
102
}
330
2A
100
AcDbVisualStyle
  2
Thicken
 70
    13
 71
     2
 72
     2
 73
     0
 90
        0
 40
-0.6
 41
-30.0
 62
     5
 63
     7
 74
     1
 91
        4
 64
     7
 65
   257
 75
     1
175
     1
 42
1.0
 92
       12
 66
     7
 43
1.0
 76
     1
 77
     6
 78
     2
 67
     7
 79
     5
170
     0
171
     0
290
     0
174
     0
 93
        1
 44
0.0
173
     0
291
     1
 45
0.0
1001
ACAD
1000
AcDbSavedByObjectVersion
1070
     0
  0
DICTIONARYVAR
  5
26A
102
{ACAD_REACTORS
330
265
102
}
330
265
100
DictionaryVariables
280
     0
  1
1:1
  0
DICTIONARYVAR
  5
26B
102
{ACAD_REACTORS
330
265
102
}
330
265
100
DictionaryVariables
280
     0
  1
2
  0
DICTIONARYVAR
  5
26C
102
{ACAD_REACTORS
330
265
102
}
330
265
100
DictionaryVariables
280
     0
  1
1
  0
DICTIONARYVAR
  5
269
102
{ACAD_REACTORS
330
265
102
}
330
265
100
DictionaryVariables
280
     0
  1
80.000000
  0
DICTIONARYVAR
  5
268
102
{ACAD_REACTORS
330
265
102
}
330
265
100
DictionaryVariables
280
     0
  1
5.000000
  0
DICTIONARY
  5
290
330
3D
100
AcDbDictionary
280
     1
281
     1
  3
ACAD_XREC_ROUNDTRIP
360
291
  0
DICTIONARY
  5
28E
330
3C
100
AcDbDictionary
280
     1
281
     1
  3
ACAD_XREC_ROUNDTRIP
360
28F
  0
DICTIONARY
  5
292
330
3E
100
AcDbDictionary
280
     1
281
     1
  3
ACAD_XREC_ROUNDTRIP
360
293
  0
DICTIONARY
  5
276
330
2F
100
AcDbDictionary
280
     1
281
     1
  3
ACAD_XREC_ROUNDTRIP
360
277
  0
DICTIONARY
  5
27A
330
31
100
AcDbDictionary
280
     1
281
     1
  3
ACAD_XREC_ROUNDTRIP
360
27B
  0
DICTIONARY
  5
278
330
30
100
AcDbDictionary
280
     1
281
     1
  3
ACAD_XREC_ROUNDTRIP
360
279
  0
DICTIONARY
  5
27C
330
32
100
AcDbDictionary
280
     1
281
     1
  3
ACAD_XREC_ROUNDTRIP
360
27D
  0
DICTIONARY
  5
284
330
36
100
AcDbDictionary
280
     1
281
     1
  3
ACAD_XREC_ROUNDTRIP
360
285
  0
DICTIONARY
  5
28C
330
3A
100
AcDbDictionary
280
     1
281
     1
  3
ACAD_XREC_ROUNDTRIP
360
28D
  0
DICTIONARY
  5
280
330
34
100
AcDbDictionary
280
     1
281
     1
  3
ACAD_XREC_ROUNDTRIP
360
281
  0
DICTIONARY
  5
282
330
35
100
AcDbDictionary
280
     1
281
     1
  3
ACAD_XREC_ROUNDTRIP
360
283
  0
DICTIONARY
  5
28A
330
39
100
AcDbDictionary
280
     1
281
     1
  3
ACAD_XREC_ROUNDTRIP
360
28B
  0
DICTIONARY
  5
26E
330
2B
100
AcDbDictionary
280
     1
281
     1
  3
ACAD_XREC_ROUNDTRIP
360
26F
  0
DICTIONARY
  5
270
330
2C
100
AcDbDictionary
280
     1
281
     1
  3
ACAD_XREC_ROUNDTRIP
360
271
  0
DICTIONARY
  5
272
330
2D
100
AcDbDictionary
280
     1
281
     1
  3
ACAD_XREC_ROUNDTRIP
360
273
  0
DICTIONARY
  5
274
330
2E
100
AcDbDictionary
280
     1
281
     1
  3
ACAD_XREC_ROUNDTRIP
360
275
  0
DICTIONARY
  5
288
330
38
100
AcDbDictionary
280
     1
281
     1
  3
ACAD_XREC_ROUNDTRIP
360
289
  0
DICTIONARY
  5
27E
330
33
100
AcDbDictionary
280
     1
281
     1
  3
ACAD_XREC_ROUNDTRIP
360
27F
  0
DICTIONARY
  5
286
330
37
100
AcDbDictionary
280
     1
281
     1
  3
ACAD_XREC_ROUNDTRIP
360
287
  0
XRECORD
  5
291
102
{ACAD_REACTORS
330
290
102
}
330
290
100
AcDbXrecord
280
     1
102
MATERIAL
148
0.0
149
0.0
149
0.0
 93
        0
 94
      127
282
     0
 72
     1
 77
     1
171
     1
175
     1
179
     1
273
     0
  0
XRECORD
  5
28F
102
{ACAD_REACTORS
330
28E
102
}
330
28E
100
AcDbXrecord
280
     1
102
MATERIAL
148
0.0
149
0.0
149
0.0
 93
        0
 94
      127
282
     0
 72
     1
 77
     1
171
     1
175
     1
179
     1
273
     0
  0
XRECORD
  5
293
102
{ACAD_REACTORS
330
292
102
}
330
292
100
AcDbXrecord
280
     1
102
MATERIAL
148
0.0
149
0.0
149
0.0
 93
        0
 94
      127
282
     0
 72
     1
 77
     1
171
     1
175
     1
179
     1
273
     0
  0
XRECORD
  5
277
102
{ACAD_REACTORS
330
276
102
}
330
276
100
AcDbXrecord
280
     1
102
RTVSPropertyOp0
 70
     1
102
RTVSPropertyOp1
 70
     1
102
RTVSPropertyOp2
 70
     1
102
RTVSPropertyOp3
 70
     1
102
RTVSPropertyOp4
 70
     1
102
RTVSPropertyOp5
 70
     1
102
RTVSPropertyOp6
 70
     1
102
RTVSPropertyOp7
 70
     1
102
RTVSPropertyOp8
 70
     1
102
RTVSPropertyOp9
 70
     1
102
RTVSPropertyOp10
 70
     1
102
RTVSPropertyOp11
 70
     1
102
RTVSPropertyOp12
 70
     1
102
RTVSPropertyOp13
 70
     1
102
RTVSPropertyOp14
 70
     1
102
RTVSPropertyOp15
 70
     1
102
RTVSPropertyOp16
 70
     1
102
RTVSPropertyOp17
 70
     1
102
RTVSPropertyOp18
 70
     1
102
RTVSPropertyOp19
 70
     1
102
RTVSPropertyOp20
 70
     1
102
RTVSPropertyOp21
 70
     1
102
RTVSPropertyOp22
 70
     1
102
RTVSPropertyOp23
 70
     1
102
RTVSPropertyOp24
 70
     1
102
RTVSPropertyOp25
 70
     1
102
RTVSPropertyOp26
 70
     1
102
RTVSPropertyOp27
 70
     1
102
RTVSPropertyOp28
 70
     1
102
RTVSPropertyOp29
 70
     1
102
RTVSPropertyOp30
 70
     1
102
RTVSPropertyOp31
 70
     1
102
RTVSPropertyOp32
 70
     1
  0
XRECORD
  5
27B
102
{ACAD_REACTORS
330
27A
102
}
330
27A
100
AcDbXrecord
280
     1
102
RTVSPropertyOp0
 70
     1
102
RTVSPropertyOp1
 70
     1
102
RTVSPropertyOp2
 70
     1
102
RTVSPropertyOp3
 70
     1
102
RTVSPropertyOp4
 70
     1
102
RTVSPropertyOp5
 70
     1
102
RTVSPropertyOp6
 70
     1
102
RTVSPropertyOp7
 70
     1
102
RTVSPropertyOp8
 70
     1
102
RTVSPropertyOp9
 70
     1
102
RTVSPropertyOp10
 70
     1
102
RTVSPropertyOp11
 70
     1
102
RTVSPropertyOp12
 70
     1
102
RTVSPropertyOp13
 70
     1
102
RTVSPropertyOp14
 70
     1
102
RTVSPropertyOp15
 70
     1
102
RTVSPropertyOp16
 70
     1
102
RTVSPropertyOp17
 70
     1
102
RTVSPropertyOp18
 70
     1
102
RTVSPropertyOp19
 70
     1
102
RTVSPropertyOp20
 70
     1
102
RTVSPropertyOp21
 70
     1
102
RTVSPropertyOp22
 70
     1
102
RTVSPropertyOp23
 70
     1
102
RTVSPropertyOp24
 70
     1
102
RTVSPropertyOp25
 70
     1
102
RTVSPropertyOp26
 70
     1
102
RTVSPropertyOp27
 70
     1
102
RTVSPropertyOp28
 70
     1
102
RTVSPropertyOp29
 70
     1
102
RTVSPropertyOp30
 70
     1
102
RTVSPropertyOp31
 70
     1
102
RTVSPropertyOp32
 70
     1
  0
XRECORD
  5
279
102
{ACAD_REACTORS
330
278
102
}
330
278
100
AcDbXrecord
280
     1
102
RTVSPropertyOp0
 70
     1
102
RTVSPropertyOp1
 70
     1
102
RTVSPropertyOp2
 70
     1
102
RTVSPropertyOp3
 70
     1
102
RTVSPropertyOp4
 70
     1
102
RTVSPropertyOp5
 70
     1
102
RTVSPropertyOp6
 70
     1
102
RTVSPropertyOp7
 70
     1
102
RTVSPropertyOp8
 70
     1
102
RTVSPropertyOp9
 70
     1
102
RTVSPropertyOp10
 70
     1
102
RTVSPropertyOp11
 70
     1
102
RTVSPropertyOp12
 70
     1
102
RTVSPropertyOp13
 70
     1
102
RTVSPropertyOp14
 70
     1
102
RTVSPropertyOp15
 70
     1
102
RTVSPropertyOp16
 70
     1
102
RTVSPropertyOp17
 70
     1
102
RTVSPropertyOp18
 70
     1
102
RTVSPropertyOp19
 70
     1
102
RTVSPropertyOp20
 70
     1
102
RTVSPropertyOp21
 70
     1
102
RTVSPropertyOp22
 70
     1
102
RTVSPropertyOp23
 70
     1
102
RTVSPropertyOp24
 70
     1
102
RTVSPropertyOp25
 70
     1
102
RTVSPropertyOp26
 70
     1
102
RTVSPropertyOp27
 70
     1
102
RTVSPropertyOp28
 70
     1
102
RTVSPropertyOp29
 70
     1
102
RTVSPropertyOp30
 70
     1
102
RTVSPropertyOp31
 70
     1
102
RTVSPropertyOp32
 70
     1
  0
XRECORD
  5
27D
102
{ACAD_REACTORS
330
27C
102
}
330
27C
100
AcDbXrecord
280
     1
102
RTVSPropertyOp0
 70
     1
102
RTVSPropertyOp1
 70
     1
102
RTVSPropertyOp2
 70
     1
102
RTVSPropertyOp3
 70
     1
102
RTVSPropertyOp4
 70
     1
102
RTVSPropertyOp5
 70
     1
102
RTVSPropertyOp6
 70
     1
102
RTVSPropertyOp7
 70
     1
102
RTVSPropertyOp8
 70
     1
102
RTVSPropertyOp9
 70
     1
102
RTVSPropertyOp10
 70
     1
102
RTVSPropertyOp11
 70
     1
102
RTVSPropertyOp12
 70
     1
102
RTVSPropertyOp13
 70
     1
102
RTVSPropertyOp14
 70
     1
102
RTVSPropertyOp15
 70
     1
102
RTVSPropertyOp16
 70
     1
102
RTVSPropertyOp17
 70
     1
102
RTVSPropertyOp18
 70
     1
102
RTVSPropertyOp19
 70
     1
102
RTVSPropertyOp20
 70
     1
102
RTVSPropertyOp21
 70
     1
102
RTVSPropertyOp22
 70
     1
102
RTVSPropertyOp23
 70
     1
102
RTVSPropertyOp24
 70
     1
102
RTVSPropertyOp25
 70
     1
102
RTVSPropertyOp26
 70
     1
102
RTVSPropertyOp27
 70
     1
102
RTVSPropertyOp28
 70
     1
102
RTVSPropertyOp29
 70
     1
102
RTVSPropertyOp30
 70
     1
102
RTVSPropertyOp31
 70
     1
102
RTVSPropertyOp32
 70
     1
  0
XRECORD
  5
285
102
{ACAD_REACTORS
330
284
102
}
330
284
100
AcDbXrecord
280
     1
102
RTVSPropertyOp0
 70
     1
102
RTVSPropertyOp1
 70
     1
102
RTVSPropertyOp2
 70
     1
102
RTVSPropertyOp3
 70
     1
102
RTVSPropertyOp4
 70
     1
102
RTVSPropertyOp5
 70
     1
102
RTVSPropertyOp6
 70
     1
102
RTVSPropertyOp7
 70
     1
102
RTVSPropertyOp8
 70
     1
102
RTVSPropertyOp9
 70
     1
102
RTVSPropertyOp10
 70
     1
102
RTVSPropertyOp11
 70
     1
102
RTVSPropertyOp12
 70
     1
102
RTVSPropertyOp13
 70
     1
102
RTVSPropertyOp14
 70
     1
102
RTVSPropertyOp15
 70
     1
102
RTVSPropertyOp16
 70
     1
102
RTVSPropertyOp17
 70
     1
102
RTVSPropertyOp18
 70
     1
102
RTVSPropertyOp19
 70
     1
102
RTVSPropertyOp20
 70
     1
102
RTVSPropertyOp21
 70
     1
102
RTVSPropertyOp22
 70
     1
102
RTVSPropertyOp23
 70
     1
102
RTVSPropertyOp24
 70
     1
102
RTVSPropertyOp25
 70
     1
102
RTVSPropertyOp26
 70
     1
102
RTVSPropertyOp27
 70
     1
102
RTVSPropertyOp28
 70
     1
102
RTVSPropertyOp29
 70
     1
102
RTVSPropertyOp30
 70
     1
102
RTVSPropertyOp31
 70
     1
102
RTVSPropertyOp32
 70
     1
  0
XRECORD
  5
28D
102
{ACAD_REACTORS
330
28C
102
}
330
28C
100
AcDbXrecord
280
     1
102
RTVSPropertyOp0
 70
     1
102
RTVSPropertyOp1
 70
     1
102
RTVSPropertyOp2
 70
     1
102
RTVSPropertyOp3
 70
     1
102
RTVSPropertyOp4
 70
     1
102
RTVSPropertyOp5
 70
     1
102
RTVSPropertyOp6
 70
     1
102
RTVSPropertyOp7
 70
     1
102
RTVSPropertyOp8
 70
     1
102
RTVSPropertyOp9
 70
     1
102
RTVSPropertyOp10
 70
     1
102
RTVSPropertyOp11
 70
     1
102
RTVSPropertyOp12
 70
     1
102
RTVSPropertyOp13
 70
     1
102
RTVSPropertyOp14
 70
     1
102
RTVSPropertyOp15
 70
     1
102
RTVSPropertyOp16
 70
     1
102
RTVSPropertyOp17
 70
     1
102
RTVSPropertyOp18
 70
     1
102
RTVSPropertyOp19
 70
     1
102
RTVSPropertyOp20
 70
     1
102
RTVSPropertyOp21
 70
     1
102
RTVSPropertyOp22
 70
     1
102
RTVSPropertyOp23
 70
     1
102
RTVSPropertyOp24
 70
     1
102
RTVSPropertyOp25
 70
     1
102
RTVSPropertyOp26
 70
     1
102
RTVSPropertyOp27
 70
     1
102
RTVSPropertyOp28
 70
     1
102
RTVSPropertyOp29
 70
     1
102
RTVSPropertyOp30
 70
     1
102
RTVSPropertyOp31
 70
     1
102
RTVSPropertyOp32
 70
     1
  0
XRECORD
  5
281
102
{ACAD_REACTORS
330
280
102
}
330
280
100
AcDbXrecord
280
     1
102
RTVSPropertyOp0
 70
     1
102
RTVSPropertyOp1
 70
     1
102
RTVSPropertyOp2
 70
     1
102
RTVSPropertyOp3
 70
     1
102
RTVSPropertyOp4
 70
     1
102
RTVSPropertyOp5
 70
     1
102
RTVSPropertyOp6
 70
     1
102
RTVSPropertyOp7
 70
     1
102
RTVSPropertyOp8
 70
     1
102
RTVSPropertyOp9
 70
     1
102
RTVSPropertyOp10
 70
     1
102
RTVSPropertyOp11
 70
     1
102
RTVSPropertyOp12
 70
     1
102
RTVSPropertyOp13
 70
     1
102
RTVSPropertyOp14
 70
     1
102
RTVSPropertyOp15
 70
     1
102
RTVSPropertyOp16
 70
     1
102
RTVSPropertyOp17
 70
     1
102
RTVSPropertyOp18
 70
     1
102
RTVSPropertyOp19
 70
     1
102
RTVSPropertyOp20
 70
     1
102
RTVSPropertyOp21
 70
     1
102
RTVSPropertyOp22
 70
     1
102
RTVSPropertyOp23
 70
     1
102
RTVSPropertyOp24
 70
     1
102
RTVSPropertyOp25
 70
     1
102
RTVSPropertyOp26
 70
     1
102
RTVSPropertyOp27
 70
     1
102
RTVSPropertyOp28
 70
     1
102
RTVSPropertyOp29
 70
     1
102
RTVSPropertyOp30
 70
     1
102
RTVSPropertyOp31
 70
     1
102
RTVSPropertyOp32
 70
     1
  0
XRECORD
  5
283
102
{ACAD_REACTORS
330
282
102
}
330
282
100
AcDbXrecord
280
     1
102
RTVSPropertyOp0
 70
     1
102
RTVSPropertyOp1
 70
     1
102
RTVSPropertyOp2
 70
     1
102
RTVSPropertyOp3
 70
     1
102
RTVSPropertyOp4
 70
     1
102
RTVSPropertyOp5
 70
     1
102
RTVSPropertyOp6
 70
     1
102
RTVSPropertyOp7
 70
     1
102
RTVSPropertyOp8
 70
     1
102
RTVSPropertyOp9
 70
     1
102
RTVSPropertyOp10
 70
     1
102
RTVSPropertyOp11
 70
     1
102
RTVSPropertyOp12
 70
     1
102
RTVSPropertyOp13
 70
     1
102
RTVSPropertyOp14
 70
     1
102
RTVSPropertyOp15
 70
     1
102
RTVSPropertyOp16
 70
     1
102
RTVSPropertyOp17
 70
     1
102
RTVSPropertyOp18
 70
     1
102
RTVSPropertyOp19
 70
     1
102
RTVSPropertyOp20
 70
     1
102
RTVSPropertyOp21
 70
     1
102
RTVSPropertyOp22
 70
     1
102
RTVSPropertyOp23
 70
     1
102
RTVSPropertyOp24
 70
     1
102
RTVSPropertyOp25
 70
     1
102
RTVSPropertyOp26
 70
     1
102
RTVSPropertyOp27
 70
     1
102
RTVSPropertyOp28
 70
     1
102
RTVSPropertyOp29
 70
     1
102
RTVSPropertyOp30
 70
     1
102
RTVSPropertyOp31
 70
     1
102
RTVSPropertyOp32
 70
     1
  0
XRECORD
  5
28B
102
{ACAD_REACTORS
330
28A
102
}
330
28A
100
AcDbXrecord
280
     1
102
RTVSPropertyOp0
 70
     1
102
RTVSPropertyOp1
 70
     1
102
RTVSPropertyOp2
 70
     1
102
RTVSPropertyOp3
 70
     1
102
RTVSPropertyOp4
 70
     1
102
RTVSPropertyOp5
 70
     1
102
RTVSPropertyOp6
 70
     1
102
RTVSPropertyOp7
 70
     1
102
RTVSPropertyOp8
 70
     1
102
RTVSPropertyOp9
 70
     1
102
RTVSPropertyOp10
 70
     1
102
RTVSPropertyOp11
 70
     1
102
RTVSPropertyOp12
 70
     1
102
RTVSPropertyOp13
 70
     1
102
RTVSPropertyOp14
 70
     1
102
RTVSPropertyOp15
 70
     1
102
RTVSPropertyOp16
 70
     1
102
RTVSPropertyOp17
 70
     1
102
RTVSPropertyOp18
 70
     1
102
RTVSPropertyOp19
 70
     1
102
RTVSPropertyOp20
 70
     1
102
RTVSPropertyOp21
 70
     1
102
RTVSPropertyOp22
 70
     1
102
RTVSPropertyOp23
 70
     1
102
RTVSPropertyOp24
 70
     1
102
RTVSPropertyOp25
 70
     1
102
RTVSPropertyOp26
 70
     1
102
RTVSPropertyOp27
 70
     1
102
RTVSPropertyOp28
 70
     1
102
RTVSPropertyOp29
 70
     1
102
RTVSPropertyOp30
 70
     1
102
RTVSPropertyOp31
 70
     1
102
RTVSPropertyOp32
 70
     1
  0
XRECORD
  5
26F
102
{ACAD_REACTORS
330
26E
102
}
330
26E
100
AcDbXrecord
280
     1
102
RTVSPropertyOp0
 70
     1
102
RTVSPropertyOp1
 70
     1
102
RTVSPropertyOp2
 70
     1
102
RTVSPropertyOp3
 70
     1
102
RTVSPropertyOp4
 70
     1
102
RTVSPropertyOp5
 70
     1
102
RTVSPropertyOp6
 70
     1
102
RTVSPropertyOp7
 70
     1
102
RTVSPropertyOp8
 70
     1
102
RTVSPropertyOp9
 70
     1
102
RTVSPropertyOp10
 70
     1
102
RTVSPropertyOp11
 70
     1
102
RTVSPropertyOp12
 70
     1
102
RTVSPropertyOp13
 70
     1
102
RTVSPropertyOp14
 70
     1
102
RTVSPropertyOp15
 70
     1
102
RTVSPropertyOp16
 70
     1
102
RTVSPropertyOp17
 70
     1
102
RTVSPropertyOp18
 70
     1
102
RTVSPropertyOp19
 70
     1
102
RTVSPropertyOp20
 70
     1
102
RTVSPropertyOp21
 70
     1
102
RTVSPropertyOp22
 70
     1
102
RTVSPropertyOp23
 70
     1
102
RTVSPropertyOp24
 70
     1
102
RTVSPropertyOp25
 70
     1
102
RTVSPropertyOp26
 70
     1
102
RTVSPropertyOp27
 70
     1
102
RTVSPropertyOp28
 70
     1
102
RTVSPropertyOp29
 70
     1
102
RTVSPropertyOp30
 70
     1
102
RTVSPropertyOp31
 70
     1
102
RTVSPropertyOp32
 70
     1
  0
XRECORD
  5
271
102
{ACAD_REACTORS
330
270
102
}
330
270
100
AcDbXrecord
280
     1
102
RTVSPropertyOp0
 70
     1
102
RTVSPropertyOp1
 70
     1
102
RTVSPropertyOp2
 70
     1
102
RTVSPropertyOp3
 70
     1
102
RTVSPropertyOp4
 70
     1
102
RTVSPropertyOp5
 70
     1
102
RTVSPropertyOp6
 70
     1
102
RTVSPropertyOp7
 70
     1
102
RTVSPropertyOp8
 70
     1
102
RTVSPropertyOp9
 70
     1
102
RTVSPropertyOp10
 70
     1
102
RTVSPropertyOp11
 70
     1
102
RTVSPropertyOp12
 70
     1
102
RTVSPropertyOp13
 70
     1
102
RTVSPropertyOp14
 70
     1
102
RTVSPropertyOp15
 70
     1
102
RTVSPropertyOp16
 70
     1
102
RTVSPropertyOp17
 70
     1
102
RTVSPropertyOp18
 70
     1
102
RTVSPropertyOp19
 70
     1
102
RTVSPropertyOp20
 70
     1
102
RTVSPropertyOp21
 70
     1
102
RTVSPropertyOp22
 70
     1
102
RTVSPropertyOp23
 70
     1
102
RTVSPropertyOp24
 70
     1
102
RTVSPropertyOp25
 70
     1
102
RTVSPropertyOp26
 70
     1
102
RTVSPropertyOp27
 70
     1
102
RTVSPropertyOp28
 70
     1
102
RTVSPropertyOp29
 70
     1
102
RTVSPropertyOp30
 70
     1
102
RTVSPropertyOp31
 70
     1
102
RTVSPropertyOp32
 70
     1
  0
XRECORD
  5
273
102
{ACAD_REACTORS
330
272
102
}
330
272
100
AcDbXrecord
280
     1
102
RTVSPropertyOp0
 70
     1
102
RTVSPropertyOp1
 70
     1
102
RTVSPropertyOp2
 70
     1
102
RTVSPropertyOp3
 70
     1
102
RTVSPropertyOp4
 70
     1
102
RTVSPropertyOp5
 70
     1
102
RTVSPropertyOp6
 70
     1
102
RTVSPropertyOp7
 70
     1
102
RTVSPropertyOp8
 70
     1
102
RTVSPropertyOp9
 70
     1
102
RTVSPropertyOp10
 70
     1
102
RTVSPropertyOp11
 70
     1
102
RTVSPropertyOp12
 70
     1
102
RTVSPropertyOp13
 70
     1
102
RTVSPropertyOp14
 70
     1
102
RTVSPropertyOp15
 70
     1
102
RTVSPropertyOp16
 70
     1
102
RTVSPropertyOp17
 70
     1
102
RTVSPropertyOp18
 70
     1
102
RTVSPropertyOp19
 70
     1
102
RTVSPropertyOp20
 70
     1
102
RTVSPropertyOp21
 70
     1
102
RTVSPropertyOp22
 70
     1
102
RTVSPropertyOp23
 70
     1
102
RTVSPropertyOp24
 70
     1
102
RTVSPropertyOp25
 70
     1
102
RTVSPropertyOp26
 70
     1
102
RTVSPropertyOp27
 70
     1
102
RTVSPropertyOp28
 70
     1
102
RTVSPropertyOp29
 70
     1
102
RTVSPropertyOp30
 70
     1
102
RTVSPropertyOp31
 70
     1
102
RTVSPropertyOp32
 70
     1
  0
XRECORD
  5
275
102
{ACAD_REACTORS
330
274
102
}
330
274
100
AcDbXrecord
280
     1
102
RTVSPropertyOp0
 70
     1
102
RTVSPropertyOp1
 70
     1
102
RTVSPropertyOp2
 70
     1
102
RTVSPropertyOp3
 70
     1
102
RTVSPropertyOp4
 70
     1
102
RTVSPropertyOp5
 70
     1
102
RTVSPropertyOp6
 70
     1
102
RTVSPropertyOp7
 70
     1
102
RTVSPropertyOp8
 70
     1
102
RTVSPropertyOp9
 70
     1
102
RTVSPropertyOp10
 70
     1
102
RTVSPropertyOp11
 70
     1
102
RTVSPropertyOp12
 70
     1
102
RTVSPropertyOp13
 70
     1
102
RTVSPropertyOp14
 70
     1
102
RTVSPropertyOp15
 70
     1
102
RTVSPropertyOp16
 70
     1
102
RTVSPropertyOp17
 70
     1
102
RTVSPropertyOp18
 70
     1
102
RTVSPropertyOp19
 70
     1
102
RTVSPropertyOp20
 70
     1
102
RTVSPropertyOp21
 70
     1
102
RTVSPropertyOp22
 70
     1
102
RTVSPropertyOp23
 70
     1
102
RTVSPropertyOp24
 70
     1
102
RTVSPropertyOp25
 70
     1
102
RTVSPropertyOp26
 70
     1
102
RTVSPropertyOp27
 70
     1
102
RTVSPropertyOp28
 70
     1
102
RTVSPropertyOp29
 70
     1
102
RTVSPropertyOp30
 70
     1
102
RTVSPropertyOp31
 70
     1
102
RTVSPropertyOp32
 70
     1
  0
XRECORD
  5
289
102
{ACAD_REACTORS
330
288
102
}
330
288
100
AcDbXrecord
280
     1
102
RTVSPropertyOp0
 70
     1
102
RTVSPropertyOp1
 70
     1
102
RTVSPropertyOp2
 70
     1
102
RTVSPropertyOp3
 70
     1
102
RTVSPropertyOp4
 70
     1
102
RTVSPropertyOp5
 70
     1
102
RTVSPropertyOp6
 70
     1
102
RTVSPropertyOp7
 70
     1
102
RTVSPropertyOp8
 70
     1
102
RTVSPropertyOp9
 70
     1
102
RTVSPropertyOp10
 70
     1
102
RTVSPropertyOp11
 70
     1
102
RTVSPropertyOp12
 70
     1
102
RTVSPropertyOp13
 70
     1
102
RTVSPropertyOp14
 70
     1
102
RTVSPropertyOp15
 70
     1
102
RTVSPropertyOp16
 70
     1
102
RTVSPropertyOp17
 70
     1
102
RTVSPropertyOp18
 70
     1
102
RTVSPropertyOp19
 70
     1
102
RTVSPropertyOp20
 70
     1
102
RTVSPropertyOp21
 70
     1
102
RTVSPropertyOp22
 70
     1
102
RTVSPropertyOp23
 70
     1
102
RTVSPropertyOp24
 70
     1
102
RTVSPropertyOp25
 70
     1
102
RTVSPropertyOp26
 70
     1
102
RTVSPropertyOp27
 70
     1
102
RTVSPropertyOp28
 70
     1
102
RTVSPropertyOp29
 70
     1
102
RTVSPropertyOp30
 70
     1
102
RTVSPropertyOp31
 70
     1
102
RTVSPropertyOp32
 70
     1
  0
XRECORD
  5
27F
102
{ACAD_REACTORS
330
27E
102
}
330
27E
100
AcDbXrecord
280
     1
102
RTVSPropertyOp0
 70
     1
102
RTVSPropertyOp1
 70
     1
102
RTVSPropertyOp2
 70
     1
102
RTVSPropertyOp3
 70
     1
102
RTVSPropertyOp4
 70
     1
102
RTVSPropertyOp5
 70
     1
102
RTVSPropertyOp6
 70
     1
102
RTVSPropertyOp7
 70
     1
102
RTVSPropertyOp8
 70
     1
102
RTVSPropertyOp9
 70
     1
102
RTVSPropertyOp10
 70
     1
102
RTVSPropertyOp11
 70
     1
102
RTVSPropertyOp12
 70
     1
102
RTVSPropertyOp13
 70
     1
102
RTVSPropertyOp14
 70
     1
102
RTVSPropertyOp15
 70
     1
102
RTVSPropertyOp16
 70
     1
102
RTVSPropertyOp17
 70
     1
102
RTVSPropertyOp18
 70
     1
102
RTVSPropertyOp19
 70
     1
102
RTVSPropertyOp20
 70
     1
102
RTVSPropertyOp21
 70
     1
102
RTVSPropertyOp22
 70
     1
102
RTVSPropertyOp23
 70
     1
102
RTVSPropertyOp24
 70
     1
102
RTVSPropertyOp25
 70
     1
102
RTVSPropertyOp26
 70
     1
102
RTVSPropertyOp27
 70
     1
102
RTVSPropertyOp28
 70
     1
102
RTVSPropertyOp29
 70
     1
102
RTVSPropertyOp30
 70
     1
102
RTVSPropertyOp31
 70
     1
102
RTVSPropertyOp32
 70
     1
  0
XRECORD
  5
287
102
{ACAD_REACTORS
330
286
102
}
330
286
100
AcDbXrecord
280
     1
102
RTVSPropertyOp0
 70
     1
102
RTVSPropertyOp1
 70
     1
102
RTVSPropertyOp2
 70
     1
102
RTVSPropertyOp3
 70
     1
102
RTVSPropertyOp4
 70
     1
102
RTVSPropertyOp5
 70
     1
102
RTVSPropertyOp6
 70
     1
102
RTVSPropertyOp7
 70
     1
102
RTVSPropertyOp8
 70
     1
102
RTVSPropertyOp9
 70
     1
102
RTVSPropertyOp10
 70
     1
102
RTVSPropertyOp11
 70
     1
102
RTVSPropertyOp12
 70
     1
102
RTVSPropertyOp13
 70
     1
102
RTVSPropertyOp14
 70
     1
102
RTVSPropertyOp15
 70
     1
102
RTVSPropertyOp16
 70
     1
102
RTVSPropertyOp17
 70
     1
102
RTVSPropertyOp18
 70
     1
102
RTVSPropertyOp19
 70
     1
102
RTVSPropertyOp20
 70
     1
102
RTVSPropertyOp21
 70
     1
102
RTVSPropertyOp22
 70
     1
102
RTVSPropertyOp23
 70
     1
102
RTVSPropertyOp24
 70
     1
102
RTVSPropertyOp25
 70
     1
102
RTVSPropertyOp26
 70
     1
102
RTVSPropertyOp27
 70
     1
102
RTVSPropertyOp28
 70
     1
102
RTVSPropertyOp29
 70
     1
102
RTVSPropertyOp30
 70
     1
102
RTVSPropertyOp31
 70
     1
102
RTVSPropertyOp32
 70
     1
  0
ENDSEC
  0
SECTION
  2
THUMBNAILIMAGE
 90
    16364
310
28000000B40000005500000001000800000000000000000000000000000000000000000000000000FFFFFF00FF000000FFFF000000FF000000FFFF000000FF00FF00FF000000000080808000C0C0C000FF000000FF7F7F00A5000000A55252007F0000007F3F3F004C0000004C2626002600000026131300FF3F0000FF9F7F
310
00A5290000A56752007F1F00007F4F3F004C1300004C2F26002609000026171300FF7F0000FFBF7F00A5520000A57C52007F3F00007F5F3F004C2600004C39260026130000261C1300FFBF0000FFDF7F00A57C0000A59152007F5F00007F6F3F004C3900004C422600261C000026211300FFFF0000FFFF7F00A5A50000A5A5
310
52007F7F00007F7F3F004C4C00004C4C26002626000026261300BFFF0000DFFF7F007CA5000091A552005F7F00006F7F3F00394C0000424C26001C260000212613007FFF0000BFFF7F0052A500007CA552003F7F00005F7F3F00264C0000394C2600132600001C2613003FFF00009FFF7F0029A5000067A552001F7F00004F
310
7F3F00134C00002F4C2600092600001726130000FF00007FFF7F0000A5000052A55200007F00003F7F3F00004C0000264C2600002600001326130000FF3F007FFF9F0000A5290052A56700007F1F003F7F4F00004C1300264C2F00002609001326170000FF7F007FFFBF0000A5520052A57C00007F3F003F7F5F00004C2600
310
264C39000026130013261C0000FFBF007FFFDF0000A57C0052A59100007F5F003F7F6F00004C3900264C420000261C001326210000FFFF007FFFFF0000A5A50052A5A500007F7F003F7F7F00004C4C00264C4C00002626001326260000BFFF007FDFFF00007CA5005291A500005F7F003F6F7F0000394C0026424C00001C26
310
0013212600007FFF007FBFFF000052A500527CA500003F7F003F5F7F0000264C0026394C0000132600131C2600003FFF007F9FFF000029A5005267A500001F7F003F4F7F0000134C00262F4C0000092600131726000000FF007F7FFF000000A5005252A50000007F003F3F7F0000004C0026264C0000002600131326003F00
310
FF009F7FFF002900A5006752A5001F007F004F3F7F0013004C002F264C0009002600171326007F00FF00BF7FFF005200A5007C52A5003F007F005F3F7F0026004C0039264C00130026001C132600BF00FF00DF7FFF007C00A5009152A5005F007F006F3F7F0039004C0042264C001C00260021132600FF00FF00FF7FFF00A5
310
00A500A552A5007F007F007F3F7F004C004C004C264C002600260026132600FF00BF00FF7FDF00A5007C00A55291007F005F007F3F6F004C0039004C26420026001C0026132100FF007F00FF7FBF00A5005200A5527C007F003F007F3F5F004C0026004C2639002600130026131C00FF003F00FF7F9F00A5002900A5526700
310
7F001F007F3F4F004C0013004C262F002600090026131700000000002D2D2D005B5B5B0089898900B7B7B700B3B3B30000000000000000000000000000000000000000000000000000000000000000000000000000000000000000000000000000000000000000000000000000000000000000000000000000000000000000
310
00000000000000000000000000000000000000000000000000000000000000000000000000000000000000000000000000000000000000000000000000000000000000000000000000000000000000000000000000000000000000000000000000000000000000000000000000000000000000000000000000000000000000
310
00000000000000000000000000000000000000000000000000000000000000000000000000000000000000000000000000000000000000000000000000000000000000000000000000000000000000000000000000000000000000000000000000000000000000000000000000000000000000000000000000000000000000
310
00000000000000000000000000000000000000000000000000000000000000000000000000000000000000000000000000000000000000000000000000000000000000000000000000000000000000000000000000000000000000000000000000000000000000000000000000000000000000000000000000000000000000
310
00000000000000000000000000000000000000000000000000000000000000000000000000000000000000000000000000000000000000000000000000000000000000000000000000000000000000000000000000000000000000000000000000000000000000000000000000000000000000000000000000000000000000
310
00000000000000000000000000000000000000000000000000000000000000000000000000000000000000000000000000000000000000000000000000000000000000000000000000000000000000000000000000000000000000000000000000000000000000000000000000000000000000000000000000000000000000
310
00000000000000000000000000000000000000000000000000000000000000000000000000000000000000000000000000000000000000000000000000000000000000000000000000000000000000000000000000000000000000000000000000000000070707070707070707070707070707070707070707070707000000
310
00000000000000000000000000000000000000000000000000000000000000000000000000000000000000000000000000000000000000000000000000000000000000000000000000000000000000000000000000000000000000000000000000000000000000000000000000000000000000000000000000000000000000
310
00000000000000000000000000000000000000000000000000000707070707000000000007070707070707070000000000070000000000000000000000000000000000000000000000000000000000000000000000000000000000000000000000000000000000000000000000000000000000000000000000000000000000
310
00000000000000000000000000000000000000000000000000000000000000000000000000000000000000000000000000000000000000000000000000000000000000000000000000000000000000070000000700000000000000000000000000000000000007000000000000000000000000000000000000000000000000
310
00000000000000000000000000000000000000000000000000000000000000000000000000000000000000000000000000000000000000000000000000000000000000000000000000000000000000000000000000000000000000000000000000000000000000000000000000000000000000000000000000000000000000
310
00000000000707070707070707070707070707070707070707070707070000000000000000000000000000000000000000000000000000000000000000000000000000000000000000000000000000000000000000000000000000000000000000000000000000000000000000000000000000000000000000000000000000
310
00000000000000000000000000000000000000000000000000000000000000000000000000000000000000000000000000000000000000000000070707070700000000000707070707070707000000000007000000000000000000000000000000000000000000000000000000000000000000000000000000000000000000
310
00000000000000000000000000000000000000000000000000000000000000000000000000000000000000000000000000000000000000000000000000000000000000000000000000000000000000000000000000000000000000000000000000000000000000000000000000000007070007070000000007070707070707
310
07070700000000070000000000000000000000000000000000000000000000000000000000000000000000000000000000000000000000000000000000000000000000000000000000000000000000000000000000000000000000000000000000000000000000000000000000000000000000000000000000000000000000
310
00000000000000000000000000000000000000000000000000000000000000000000000000070000000700000000000007000000070007000000000007000000000000000000000000000000000000000000000000000000000000000000000000000000000000000000000000000000000000000000000000000000000000
310
00000000000000000000000000000000000000000000000000000000000000000000000000000000000000000000000000000000000000000000000000000000000000000000000000000000000000000000000000000000000007000000070000000000000000000000000000000000000700000000000000000000000000
310
00000000000000000000000000000000000000000000000000000000000000000000000000000000000000000000000000000000000000000000000000000000000000000000000000000000000000000000000000000000000000000000000000000000000000000000000000000000000000000000000000000000000000
310
00000000000000000000000000000000070707070707070707070707070707070707070707070707000000000000000000000000000000000000000000000000000000000000000000000000000000000000000000000000000000000000000000000000000000000000000000000000000000000000000000000000000000
310
00000000000000000000000000000000000000000000000000000000000000000000000000000000000000000000000000000000000000000000000000000000000000000000000000000000000000000000000000000000000000000000000000000000000000000000000000000000000000000000000000000000000000
310
00000000000000000000000000000000000000000000000000000000000000000000000000000000000000000000000000000000000000000000000000000000000000000000000000000000000000000000000000000000000000000000000000000000000000000000000000000000000000000000000000000000000000
310
00000000000000000000000000000000000000000000000000000000000000000000000000000000000000000000000000000000000000000000000000000000000000000000000000000000000000000000000000000000000000000000000000000000000000000000000000000000000000000000000000000000000000
310
00000000000000000000000000000000000000000000000000000000000000000000000000000000000000000000000000000000000000000000000000000000000000000000000000000000000000000000000000000000000000000000000000000000000000000000000000000000000000000000000000000000000000
310
00000000000000000000000000000000000000000000000000000000000000000000000000000000000000000000000000000000000000000000000000000000000000000000000000000000000000000000000000000000000000000000000000000000000000000000000000000000000000000000000000000000000000
310
00000000000000000000000000000000000000000000000000000000000000000000000000000000000000000000000000000000000000000000000000000000000000000000000000000000000000000000000000000000000000000000000000000000000000000000000000000000000000000000000000000000000000
310
00000000000000000000000000000000000000000000000000000000000000000000000000000000000000000000000000000000000000000000000000000000000000000000000000000000000000000000000000000000000000000000000000000000000000000000000000000000000000000000000000000000000000
310
00000000000000000000000000000000000000000000000000000000000000000000000000000000000000000000000000000000000000000000000000000000000000000000000000000000000000000000000000000000000000000000000000000000000000000000000000000000000000000000000000000000000000
310
00000000000000000000000000000000000000000000000000000000000000000000000000000000000000000000000000000000000000000000000000000000000000000000000000000000000000000000000000000000000000000000000000000000000000000000000000000000000000000000000000000000000000
310
00000000000000000000000000000000000000000000000000000000000000000000000000000000000000000000000000000000000000000000000000000000000000000000000000000000000000000000000000000000000000000000000000000000000000000000000000000000000000000000000000000000000000
310
00000000000000000000000000000000000000000000000000000000000000000000000000000000000000000000000000000000000000000000000000000000000000000000000000000000000000000000000000000000000000000000000000000000000000000000000000000000000000000000000000000000000000
310
00000000000000000000000000000000000000000000000000000000000000000000000000000000000000000000000000000000000000000000000000000000000000000000000000000000000000000000000000000000000000000000000000000000000000000000000000000000000000000000000000000000000000
310
00000000000000000000000000000000000000000000000000000000000000000000000000000000000000000000000000000000000000000000000000000000000000000000000000000000000000000000000000000000000000000000000000000000000000000000000000000000000000000000000000000000000000
310
00000000000000000000000000000000000000000000000000000000000000000000000000000000000000000000000000000000000000000000000000000000000000000000000000000000000000000000000000000000000000000000000000000000000000000000000000000000000000000000000000000000000000
310
00000000000000000000000000000000000000000000000000000000000000000000000000000000000000000000000000000000000000000000000000000000000000000000000000000000000000000000000000000000000000000000000000000000000000000000000000000000000000000000000000000000000000
310
00000000000000000000000000000000000000000000000000000000000000000000000000000000000000000000000000000000000000000000000000000000000000000000000000000000000000000000000000000000000000000000000000000000000000000000000000000000000000000000000000000000000000
310
00000000000000000000000000000000000000000000000000000000000000000000000000000000000000000000000000000000000000000000000000000000000000000000000000000000000000000000000000000000000000000000000000000000000000000000000000000000000000000000000000000000000000
310
00000000000000000000000000000000000000000000000000000000000000000000000000000000000000000000000000000000000000000000000000000000000000000000000000000000000000000000000000000000000000000000000000000000000000000000000000000000000000000000000000000000000000
310
00000000000000000000000000000000000000000000000000000000000000000000000000000000000000000000000000000000000000000000000000000000000000000000000000000000000000000000000000000000000000000000000000000000000000000000000000000000000000000000000000000000000000
310
00000000000000000000000000000000000000000000000000000000000000000000000000000000000000000000000000000000000000000000000000000000000000000000000000000000000000000000000000000000000000000000000000000000000000000000000000000000000000000000000000000000000000
310
00000000000000000000000000000000000000000000000000000000000000000000000000000000000000000000000000000000000000000000000000000000000000000000000000000000000000000000000000000000000000000000000000000000000000000000000000000000000000000000000000000000000000
310
00000000000000000000000000000000000000000000000000000000000000000000000000000000000000000000000000000000000000000000000000000000000000000000000000000000000000000000000000000000000000000000000000000000000000000000000000000000000000000000000000000000000000
310
00000000000000000000000000000000000000000000000000000000000000000000000000000000000000000000000000000000000000000000000000000000000000000000000000000000000000000000000000000000000000000000000000000000000000000000000000000000000000000000000000000000000000
310
00000000000000000000000000000000000000000000000000000000000000000000000000000000000000000000000000000000000000000000000000000000000000000000000000000000000000000000000000000000000000000000000000000000000000000000000000000000000000000000000000000000000000
310
00000000000000000000000000000000000000000000000000000000000000000000000000000000000000000000000000000000000000000000000000000000000000000000000000000000000000000000000000000000000000000000000000000000000000000000000000000000000000000000000000000000000000
310
00000000000000000000000000000000000000000000000000000000000000000000000000000000000000000000000000000000000000000000000000000000000000000000000000000000000000000000000000000000000000000000000000000000000000000000000000000000000000000000000000000000000000
310
00000000000000000000000000000000000000000000000000000000000000000000000000000000000000000000000000000000000000000000000000000000000000000000000000000000000000000000000000000000000000000000000000000000000000000000000000000000000000000000000000000000000000
310
00000000000000000000000000000000000000000000000000000000000000000000000000000000000000000000000000000000000000000000000000000000000000000000000000000000000000000000000000000000000000000000000000000000000000000000000000000000000000000000000000000000000000
310
00000000000000000000000000000000000000000000000000000000000000000000000000000000000000000000000000000000000000000000000000000000000000000000000000000000000000000000000000000000000000000000000000000000000000000000000000000000000000000000000000000000000000
310
00000000000000000000000000000000000000000000000000000000000000000000000000000000000000000000000000000000000000000000000000000000000000000000000000000000000000000000000000000000000000000000000000000000000000000000000000000000000000000000000000000000000000
310
00000000000000000000000000000000000000000000000000000096000000000000000000000000000000000000000000000000000000000000000000000000000000000000000000000000000000000000000000000000000000000000000000000000000000000000000000000000000000000000000000000000000000
310
00000000000000000000000000000000000000000000000000000000000000000000000000000000000000000000000000000000000000000000000000000202020202020202020202020202020202020202020202020202020202020202020202020000000000000000000000000000000000000000000000000000000000
310
00000000000000000000000000000000000000000000000000000000000000000000000000000000000000000000000000000000000000000000000000000000000000000000000000000000000000000000000000000000000000000000000000000000000000000000000000000000000000020000000707070000000707
310
07000000000007000000000007070700000707070000000200000000000000000000000000000000000000000000000000000000000000000000000000000000000000000000000000000000000000000000000000000000000000000000000000000000000000000000000000000000000000000000000000000000000000
310
00000000000000000000000000000000000000000000000000000000000000000000000000000000000200000707070707070707070707000007070707000007070707070707070707070000020000000000000000000000000000000000000000000000000000000000000000000000000000000000000000000000000000
310
00000000000000000000000000000000000000000000000000000000000000000000000000000000000000000000000000000000000000000000000000000000000000000000000000000000000000000000000000000000000000000000020000070000070707070000070700070700960700000707000007000700000707
310
07000200000000000000000000000000000000000000000000000000000000000000000000000000000000000000000000000000000000000000000000000000000000000000000000000000000000000000000000000000000000000000000000000000000000000000000000000000000000000000000000000000000000
310
00000000000000000000000000000000000000000200000707000007070700000707000707009607070007070000070707000000070700020000000000000000000000000000000000000000000000000000000000000000000000000000000000000000000000000000000000000000000000000000000000000000000000
310
00000000000000000000000000000000000000000000000000000000000000000000000000000000000000000000000000000000000000000000000000000000000000000000000000020000070707070707070707070700000707070707000007070707070707070707070002000000000000000000000000000000000000
310
00000000000000000000000000000000000000000000000000000000000000000000000000000000000000000000000000000000000000000000000000000000000000000000000000000000000000000000000000000000000000000000000000000000000000000000000000000000000000000000000000000000000002
310
00000007070700000707070700000007070707000000070707070000070707000000020000000000000000000000000000000000000000000000000000000000000000000000000000000000000000000000000000000000000000000000000000000000000000000000000000000000000000000000000000000000000000
310
00000000000000000000000000000000000000000000000000000000000000000000000000000000000000000000000000000000020202020202020202020202020202020202020202020202020202020202020202020202000000000000000000000000000000000000000000000000000000000000000000000000000000
310
00000000000000000000000000000000000000000000000000000000000000000000000000000000000000000000000000000000000000000000000000000000000000000000000000000000000000000000000000000000000000000000000000000000000000000002000000000000000000000000000000000096000000
310
00000000000000000000000000020000000000000000000000000000000000000000000000000000000000000000000000000000000000000000000000000000000000000000000000000000000000000000000000000000000000000000000000000000000000000000000000000000000000000000000000000000000000
310
00000000000000000000000000000000000000000000000000000000000000000000000000000000000000000000000000000000000000000000000000000000000000000000000000000000000000000000000000000000000000000000000000000000000000000000000000000000000000000000000000000000000000
310
00000000000000000000000000000000000000000000000000000000000000000000000000000000000000000000000000000000000000000000000000000000000000000000000000000000000000000000000000000000000000000000000000000000000000000000000000000000000000000000000000000000000000
310
00000000000000000000000000000000000000000000000000000000000000000000000000000000000000000000000000000000000000000000000000000000000000000000000000000000000000000000000000000000000000000000000000000000000000000000000000000000000000000000000000000000000000
310
00000000000000000000000000000000000000000000000000000000000000000000000000000000000000000000000000000000000000000000000000000000000000000000000000000000000000000000000000000000000000000000000000000000000000000000000000000000000000000000000000000000000000
310
00000000000000000000000000000000000000000000000000000000000000000000000000000000000000000000000000000000000000000000000000000000000000000000000000000000000000000000000000000000000000000000000000000000000000000000000000000000000000000000000000000000000000
310
00000000000000000000000000000000000000000000000000000000000000000000000000000000000000000000000000000000000000000000000000000000000000000000000000000000000000000000000000000000000000000000000000000000000000000000000000000000000000000000000000000000000000
310
00000000000000000000000000000000000000000000000000000000000000000000000000000000000000000000000000000000000000000000000000000000000000000000000000000000000000000000000000000000000000000000000000000000000000000000000000000000000000000000000000000000000000
310
00000000000000000000000000000000000000000000000000000000000000000000000000000000000000000000000000000000000000000000000000000000000000000000000000000000000000000000000000000000000000000000000000000000000000000000000000000000000000000000000000000000000000
310
00000000000000000000000000000000000000000000000000000000000000000000000000000000000000000000000000000000000000000000000000000000000000000000000000000000000000000000000000000000000000000000000000000000000000000000000000000000000000000000000000000000000000
310
00000000000000000000000000000000000000000000000000000000000000000000000000000000000000000000000000000000000000000000000000000000000000000000000000000000000000000000000000000000000000000000000000000000000000000000000000000000000000000000000000000000000000
310
00000000000000000000000000000000000000000000000000000000000000000000000000000000000000000000000000000000000000000000000000000000000000000000000000000000000000000000000000000000000000000000000000000000000000000000000000000000000000000000000000000000000000
310
00000000000000000000000000000000000000000000000000000000000000000000000000000000000000000000000000000000000000000000000000000000000000000000000000000000000000000000000000000000000000000000000000000000000000000000000000000000000000000000000000000000000000
310
00000000000000000000000000000000000000000000000000000000000000000000000000000000000000000000000000000000000000000000000000000000000000000000000000000000000000000000000000000000000000000000000000000000000000000000000000000000000000000000000000000000000000
310
00000000000000000000000000000000000000000000000000000000000000000000000000000000000000000000000000000000000000000000000000000000000000000000000000000000000000000000000000000000000000000000000000000000000000000000000000000000000000000000000000000000000000
310
00000000000000000000000000000000000000000000000000000000000000000000000000000000000000000000000000000000000000000000000000000000000000000000000000000000000000000000000000000000000000000000000000000000000000000000000000000000000000000000000000000000000000
310
00000000000000000000000000000000000000000000000000000000000000000000000000000000000000000000000000000000000000000000000000000000000000000000000000000000000000000000000000000000000000000000000000000000000000000000000000000000000000000000009600000000960000
310
00000000000000000000000000000000000000000000000000000000000000000000000000000000000000000000000000000000000000000000000000000000000000000000000000000000000000000000000000000000000000000000000000000000000000000000000000000000000000000000000000000000000000
310
00000000000000000000000000000000000000000000000000000000000000000202070202020202020202020707020702020202070207070202020202020202020702020000000000000000020202020202020202000000000000000000000000000000000000000000000000000000000000000000000000000000000000
310
00000000000000000000000000000000000000000000000000000000000000000000000000000000000000000000000000000000000000000000000000000000000000000000000000000000000000000000000000020207070707070707070707070202070702020707020707070707070707070707070202000000000000
310
00000200000000000000020000000000000000000000000000000000000000000000000000000000000000000000000000000000000000000000000000000000000000000000000000000000000000000000000000000000000000000000000000000000000000000000000000000000000000000000000000000000000000
310
00000000000000000000000200020302000000000000000002000000009600000000000000000000000002030200020000000000000000020000000000000002000000000000000000000000000000000000000000000000000000000000000000000000000000000000000000000000000000000000000000000000000000
310
00000000000000000000000000000000000000000000000000000000000000000000000000000000000000000000000000000000000000000000000000000000070002020000000000000000000200000000960000000000000000000000000002020007000000000000000002009600070707000200000000000000000000
310
00000000000000000000000000000000000000000000000000000000000000000000000000000000000000000000000000000000000000000000000000000000000000000000000000000000000000000000000000000000000000000000000000000000000000000000000000000000000000000007000000000000000000
310
00000002000000009600000000000000000000000000000000070000000000000000029607070707070002000000000000000000000000000000000000000000000000000000000000000000000000000000000000000000000000000000000000000000000000000000000000000000000000000000000000000000000000
310
00000000000000000000000000000000000000000000000000000000000000000000000000000000000000070000000000000000960000000200000000960000000000000000000000000000000007000000000000000002070700000007070200000000000000000000000000000000000000000000000000000000000000
310
00000000000000000000000000000000000000000000000000000000000000000000000000000000000000000000000000000000000000000000000000000000000000000000000000000000000000000000000000000000000000000000000007000000000000000202000000020000000096000000000000000202000000
310
00000000070000000000000000020007070007070702000000000000000000000000000000000000000000000000000000000000000000000000000000000000000000000000000000000000000000000000000000000000000000000000000000000000000000000000000000000000000000000000000000000000000000
310
00000000000000000000000000000000000000000000070000000000000002020000000200000000960000000000000002020000000000000007000000000000000002000707070707000200000000000000000000000000000000000000000000000000000000000000000000000000000000000000000000000000000000
310
00000000000000000000000000000000000000000000000000000000000000000000000000000000000000000000000000000000000000000000000000000000000000000000000000000007000000000000000000000000020000000096000000000000000000000000000000000700000000000000000200000707070000
310
02000000000000000000000000000000000000000000000000000000000000000000000000000000000000000000000000000000000000000000000000000000000000000000000000000000000000000000000000000000000000000000000000000000000000000000000000000000000000000000000000000000000000
310
00020000000000000000000000000200000000960000000000000000000000000000000002000000000000000002000000070700000200000000000000000000000000000000000000000000000000000000000000000000000000000000000000000000000000000000000000000000000000000000000000000000000000
310
00000000000000000000000000000000000000000000000000000000000000000000000000000000000000000000000000000000000002000007080000000000000000020000000096000000000000000000000000070800000200000000000000000200070707000700020000000000000000000000000000000000000000
310
00000000000000000000000000000000000000000000000000000000000000000000000000000000000000000000000000000000000000000000000000000000000000000000000000000000000000000000000000000000000000000000000000000000000000000000000200080808080000000000000002000000009600
310
00009600000000000000080808080002000000000000000002070007000707000200000000000000000000000000000000000000000000000000000000000000000000000000000000000000000000000000000000000000000000000000000000000000000000000000000000000000000000000000000000000000000000
310
00000000000000000000000000000000000000000000000000000000000000009602969696089696969696969696029696969696969696029696969696969696960896960296000000000000000207079696960707029600000000000000000000000000000000000000000000000000000000000000000000000000000000
310
00000000000000000000000000000000000000000000000000000000000000000000000000000000000000000000000000000000000000000000000000000000000000000000000000000000000000000000000000000200000708000000000000000002000000009600000002000000000000000007080000020000000000
310
00000002000707000707070200000000000000000000000000000000000000000000000000000000000000000000000000000000000000000000000000000000000000000000000000000000000000000000000000000000000000000000000000000000000000000000000000000000000000000000000000000000000000
310
00000000000000000000000002000808080800000000000000020000000096000000000000000000000008080808000200000000000000000200070707070700020000000000000000000000000000000000000000000000000000000000000000000000000000000000000000000000000000000000000000000000000000
310
00000000000000000000000000000000000000000000000000000000000000000000000000000000000000000000000000000000000000000000000000000000000200000008000000000000000002000000009600000000000000000000000000080000020000000000000000020000070700000002000000000000000000
310
00000000000000000000000000000000000000000000000000000000000000000000000000000000000000000000000000000000000000000000000000000000000000000000000000000000000000000000000000000000000000000000000000000000000000000000000000000000000000000000070000000000000000
310
00000000020000000096000000000000000000000000000000000700000000000000000200000707070000020000000000000000000000000000000000000000000000000000000000000000000000000000000000000000000000000000000000000000000000000000000000000000000000000000000000000000000000
310
00000000000000000000000000000000000000000000000000000000000000000000000000000000000000000700000000000000009600000002000000009600000000000000000000000000000000070000000000000000020007070707070002000000000000000000000000000000000000000000000000000000000000
310
00000000000000000000000000000000000000000000000000000000000000000000000000000000000000000000000000000000000000000000000000000000000000000000000000000000000000000000000000000000000000000000000000070000000000000002020000000200000000960000000000000002020000
310
00000000000700000000000000000200070700070700020000000000000000000000000000000000000000000000000000000000000000000000000000000000000000000000000000000000000000000000000000000000000000000000000000000000000000000000000000000000000000000000000000000000000000
310
00000000000000000000000000000000000000000000000700000000000000009600000002000000009600000000000000000000000000000000070000000000000000020707000000070702000000000000000000000000000000000000000000000000000000000000000000000000000000000000000000000000000000
310
00000000000000000000000000000000000000000000000000000000000000000000000000000000000000000000000000000000000000000000000000000000000000000000000000000000070000000000000000000000000200000000960000000000000000000000000000000007000000000000000002079607070700
310
07020000000000000000000000000000000000000000000000000000000000000000000000000000000000000000000000000000000000000000000000000000000000000000000000000000000000000000000000000000000000000000000000000000000000000000000000000000000000000000000000000000000000
310
00000700000200000000000000000002000000009600000000000000000000000000020000070000000000000000020207000707070002000000000000000000000000000000000000000000000000000000000000000000000000000000000000000000000000000000000000000000000000000000000000000000000000
310
00000000000000000000000000000000000000000000000000000000000000000000000000000000000000000000000000000000000000070002020200000000000000000200000000960000000000000000000000000202020007000000000000000002000007070000000200000000000000000000000000000000000000
310
00000000000000000000000000000000000000000000000000000000000000000000000000000000000000000000000000000000000000000000000000000000000000000000000000000000000000000000000000000000000000000000000000000000000000000000000002020207070707070707070707020202020202
310
02020202070707070707070707070302020000000000000000020000000000000002000000000000000000000000000000000000000000000000000000000000000000000000000000000000000000000000000000000000000000000000000000000000000000000000000000000000000000000000000000000000000000
310
00000000000000000000000000000000000000000000000000000000000000000000020207070707070707070707070702020202020202020707070707070707070707070202000000000000000002020202020202020200000000000000000000000000000000000000000000000000000000000000000000000000000000
310
00000000000000000000000000000000000000000000000000000000000000000000000000000000000000000000000000000000000000000000000000000000000000000000000000000000000000000000000000000000000000000000000000000000960000000096000000000000000000000000000000000000000000
310
00000000000000000000000000000000000000000000000000000000000000000000000000000000000000000000000000000000000000000000000000000000000000000000000000000000000000000000000000000000000000000000000000000000000000000000000000000000000000000000000000000000000000
310
00000000000000000000000000000000000000000000000000000000000000000000000000000000000000000000000000000000000000000000000000000000000000000000000000000000000000000000000000000000000000000000000000000000000000000000000000000000000000000000000000000000000000
310
00000000000000000000000000000000000000000000000000000000000000000000000000000000000000000000000000000000000000000000000000000000000000000000000000000000000000000000000000000000000000000000000000000000000000000000000000000000000000000000000000000000000000
310
00000000000000000000000000000000000000000000000000000000000000000000000000000000000000000000000000000000000000000000000000000000000000000000000000000000000000000000000000000000000000000000000000000000000000000000000000000000000000000000000000000000000000
310
000000000000000000000000000000000000000000000000000000000000000000000000000000000000000000000000000000000000000000000000000000000000000000000000000000000000000000000000000000000000000000000000000000000000000000000000
  0
ENDSEC
  0
EOF
