  0
SECTION
  2
HEADER
  9
$ACADVER
  1
AC1015
  9
$ACADMAINTVER
 70
     6
  9
$DWGCODEPAGE
  3
ANSI_932
  9
$INSBASE
 10
0.0
 20
0.0
 30
0.0
  9
$EXTMIN
 10
140.4222208032914
 20
40.0
 30
0.0
  9
$EXTMAX
 10
372.0
 20
432.5192009715791
 30
0.0
  9
$LIMMIN
 10
140.4222208032914
 20
40.0
  9
$LIMMAX
 10
372.0
 20
432.5192009715791
  9
$ORTHOMODE
 70
     0
  9
$REGENMODE
 70
     1
  9
$FILLMODE
 70
     1
  9
$QTEXTMODE
 70
     0
  9
$MIRRTEXT
 70
     1
  9
$LTSCALE
 40
0.2266515071226966
  9
$ATTMODE
 70
     1
  9
$TEXTSIZE
 40
2.5
  9
$TRACEWID
 40
1.0
  9
$TEXTSTYLE
  7
Standard
  9
$CLAYER
  8
0
  9
$CELTYPE
  6
ByLayer
  9
$CECOLOR
 62
   256
  9
$CELTSCALE
 40
1.0
  9
$DISPSILH
 70
     0
  9
$DIMSCALE
 40
1.0
  9
$DIMASZ
 40
2.5
  9
$DIMEXO
 40
0.625
  9
$DIMDLI
 40
3.75
  9
$DIMRND
 40
0.0
  9
$DIMDLE
 40
0.0
  9
$DIMEXE
 40
1.25
  9
$DIMTP
 40
0.0
  9
$DIMTM
 40
0.0
  9
$DIMTXT
 40
2.5
  9
$DIMCEN
 40
2.5
  9
$DIMTSZ
 40
0.0
  9
$DIMTOL
 70
     0
  9
$DIMLIM
 70
     0
  9
$DIMTIH
 70
     0
  9
$DIMTOH
 70
     0
  9
$DIMSE1
 70
     0
  9
$DIMSE2
 70
     0
  9
$DIMTAD
 70
     1
  9
$DIMZIN
 70
     0
  9
$DIMBLK
  1

  9
$DIMASO
 70
     1
  9
$DIMSHO
 70
     1
  9
$DIMPOST
  1

  9
$DIMAPOST
  1

  9
$DIMALT
 70
     0
  9
$DIMALTD
 70
     3
  9
$DIMALTF
 40
0.03937007874016
  9
$DIMLFAC
 40
1.0
  9
$DIMTOFL
 70
     1
  9
$DIMTVP
 40
0.0
  9
$DIMTIX
 70
     0
  9
$DIMSOXD
 70
     0
  9
$DIMSAH
 70
     0
  9
$DIMBLK1
  1

  9
$DIMBLK2
  1

  9
$DIMSTYLE
  2
Standard
  9
$DIMCLRD
 70
     0
  9
$DIMCLRE
 70
     0
  9
$DIMCLRT
 70
     0
  9
$DIMTFAC
 40
0.75
  9
$DIMGAP
 40
0.625
  9
$DIMJUST
 70
     0
  9
$DIMSD1
 70
     0
  9
$DIMSD2
 70
     0
  9
$DIMTOLJ
 70
     0
  9
$DIMTZIN
 70
     8
  9
$DIMALTZ
 70
     0
  9
$DIMALTTZ
 70
     0
  9
$DIMUPT
 70
     0
  9
$DIMDEC
 70
     2
  9
$DIMTDEC
 70
     2
  9
$DIMALTU
 70
     2
  9
$DIMALTTD
 70
     3
  9
$DIMTXSTY
  7
Standard
  9
$DIMAUNIT
 70
     0
  9
$DIMADEC
 70
     0
  9
$DIMALTRND
 40
0.0
  9
$DIMAZIN
 70
     0
  9
$DIMDSEP
 70
    46
  9
$DIMATFIT
 70
     3
  9
$DIMFRAC
 70
     0
  9
$DIMLDRBLK
  1

  9
$DIMLUNIT
 70
     2
  9
$DIMLWD
 70
    -2
  9
$DIMLWE
 70
    -2
  9
$DIMTMOVE
 70
     0
  9
$LUNITS
 70
     2
  9
$LUPREC
 70
     4
  9
$SKETCHINC
 40
1.0
  9
$FILLETRAD
 40
10.0
  9
$AUNITS
 70
     0
  9
$AUPREC
 70
     0
  9
$MENU
  1
.
  9
$ELEVATION
 40
0.0
  9
$PELEVATION
 40
0.0
  9
$THICKNESS
 40
0.0
  9
$LIMCHECK
 70
     0
  9
$CHAMFERA
 40
10.0
  9
$CHAMFERB
 40
10.0
  9
$CHAMFERC
 40
20.0
  9
$CHAMFERD
 40
0.0
  9
$SKPOLY
 70
     0
  9
$TDCREATE
 40
2457922.721500706
  9
$TDUCREATE
 40
2457922.346500706
  9
$TDUPDATE
 40
2457922.721501424
  9
$TDUUPDATE
 40
2457922.346501424
  9
$TDINDWG
 40
0.0000000116
  9
$TDUSRTIMER
 40
0.0000000116
  9
$USRTIMER
 70
     1
  9
$ANGBASE
 50
0.0
  9
$ANGDIR
 70
     0
  9
$PDMODE
 70
     0
  9
$PDSIZE
 40
0.0
  9
$PLINEWID
 40
0.0
  9
$SPLFRAME
 70
     0
  9
$SPLINETYPE
 70
     6
  9
$SPLINESEGS
 70
     8
  9
$HANDSEED
  5
360
  9
$SURFTAB1
 70
     6
  9
$SURFTAB2
 70
     6
  9
$SURFTYPE
 70
     6
  9
$SURFU
 70
     6
  9
$SURFV
 70
     6
  9
$UCSBASE
  2

  9
$UCSNAME
  2

  9
$UCSORG
 10
0.0
 20
0.0
 30
0.0
  9
$UCSXDIR
 10
1.0
 20
0.0
 30
0.0
  9
$UCSYDIR
 10
0.0
 20
1.0
 30
0.0
  9
$UCSORTHOREF
  2

  9
$UCSORTHOVIEW
 70
     0
  9
$UCSORGTOP
 10
0.0
 20
0.0
 30
0.0
  9
$UCSORGBOTTOM
 10
0.0
 20
0.0
 30
0.0
  9
$UCSORGLEFT
 10
0.0
 20
0.0
 30
0.0
  9
$UCSORGRIGHT
 10
0.0
 20
0.0
 30
0.0
  9
$UCSORGFRONT
 10
0.0
 20
0.0
 30
0.0
  9
$UCSORGBACK
 10
0.0
 20
0.0
 30
0.0
  9
$PUCSBASE
  2

  9
$PUCSNAME
  2

  9
$PUCSORG
 10
0.0
 20
0.0
 30
0.0
  9
$PUCSXDIR
 10
1.0
 20
0.0
 30
0.0
  9
$PUCSYDIR
 10
0.0
 20
1.0
 30
0.0
  9
$PUCSORTHOREF
  2

  9
$PUCSORTHOVIEW
 70
     0
  9
$PUCSORGTOP
 10
0.0
 20
0.0
 30
0.0
  9
$PUCSORGBOTTOM
 10
0.0
 20
0.0
 30
0.0
  9
$PUCSORGLEFT
 10
0.0
 20
0.0
 30
0.0
  9
$PUCSORGRIGHT
 10
0.0
 20
0.0
 30
0.0
  9
$PUCSORGFRONT
 10
0.0
 20
0.0
 30
0.0
  9
$PUCSORGBACK
 10
0.0
 20
0.0
 30
0.0
  9
$USERI1
 70
     0
  9
$USERI2
 70
     0
  9
$USERI3
 70
     0
  9
$USERI4
 70
     0
  9
$USERI5
 70
     0
  9
$USERR1
 40
0.0
  9
$USERR2
 40
0.0
  9
$USERR3
 40
0.0
  9
$USERR4
 40
0.0
  9
$USERR5
 40
0.0
  9
$WORLDVIEW
 70
     1
  9
$SHADEDGE
 70
     3
  9
$SHADEDIF
 70
    70
  9
$TILEMODE
 70
     1
  9
$MAXACTVP
 70
    64
  9
$PINSBASE
 10
0.0
 20
0.0
 30
0.0
  9
$PLIMCHECK
 70
     0
  9
$PEXTMIN
 10
1.000000000000000E+20
 20
1.000000000000000E+20
 30
1.000000000000000E+20
  9
$PEXTMAX
 10
-1.000000000000000E+20
 20
-1.000000000000000E+20
 30
-1.000000000000000E+20
  9
$PLIMMIN
 10
0.0
 20
0.0
  9
$PLIMMAX
 10
420.0
 20
297.0
  9
$UNITMODE
 70
     0
  9
$VISRETAIN
 70
     1
  9
$PLINEGEN
 70
     0
  9
$PSLTSCALE
 70
     0
  9
$TREEDEPTH
 70
  3020
  9
$CMLSTYLE
  2
Standard
  9
$CMLJUST
 70
     0
  9
$CMLSCALE
 40
20.0
  9
$PROXYGRAPHICS
 70
     1
  9
$MEASUREMENT
 70
     1
  9
$CELWEIGHT
370
    -1
  9
$ENDCAPS
280
     0
  9
$JOINSTYLE
280
     0
  9
$LWDISPLAY
290
     0
  9
$INSUNITS
 70
     4
  9
$HYPERLINKBASE
  1

  9
$STYLESHEET
  1

  9
$XEDIT
290
     1
  9
$CEPSNTYPE
380
     0
  9
$PSTYLEMODE
290
     1
  9
$FINGERPRINTGUID
  2
{41B4EF80-3944-48FF-989B-2C6EEE625E55}
  9
$VERSIONGUID
  2
{FAEB1C32-E019-11D5-929B-00C0DF256EC4}
  9
$EXTNAMES
290
     1
  9
$PSVPSCALE
 40
0.0
  9
$OLESTARTUP
290
     0
  0
ENDSEC
  0
SECTION
  2
CLASSES
  0
CLASS
  1
ACDBDICTIONARYWDFLT
  2
AcDbDictionaryWithDefault
  3
ObjectDBX Classes
 90
        0
280
     0
281
     0
  0
CLASS
  1
VISUALSTYLE
  2
AcDbVisualStyle
  3
ObjectDBX Classes
 90
     4095
280
     0
281
     0
  0
CLASS
  1
MATERIAL
  2
AcDbMaterial
  3
ObjectDBX Classes
 90
     1153
280
     0
281
     0
  0
CLASS
  1
SCALE
  2
AcDbScale
  3
ObjectDBX Classes
 90
     1153
280
     0
281
     0
  0
CLASS
  1
DICTIONARYVAR
  2
AcDbDictionaryVar
  3
ObjectDBX Classes
 90
        0
280
     0
281
     0
  0
CLASS
  1
ACDBPLACEHOLDER
  2
AcDbPlaceHolder
  3
ObjectDBX Classes
 90
        0
280
     0
281
     0
  0
CLASS
  1
LAYOUT
  2
AcDbLayout
  3
ObjectDBX Classes
 90
        0
280
     0
281
     0
  0
ENDSEC
  0
SECTION
  2
TABLES
  0
TABLE
  2
VPORT
  5
8
330
0
100
AcDbSymbolTable
 70
     1
  0
VPORT
  5
29
330
8
100
AcDbSymbolTableRecord
100
AcDbViewportTableRecord
  2
*Active
 70
     0
 10
0.0
 20
0.0
 11
1.0
 21
1.0
 12
256.2111104016457
 22
236.2596004857895
 13
0.0
 23
0.0
 14
10.0
 24
10.0
 15
10.0
 25
10.0
 16
0.0
 26
0.0
 36
1.0
 17
0.0
 27
0.0
 37
0.0
 40
431.771121068737
 41
1.333333333333333
 42
50.0
 43
0.0
 44
0.0
 50
0.0
 51
0.0
 71
     0
 72
 20000
 73
     1
 74
     3
 75
     0
 76
     0
 77
     0
 78
     0
281
     0
 65
     1
110
0.0
120
0.0
130
0.0
111
1.0
121
0.0
131
0.0
112
0.0
122
1.0
132
0.0
 79
     0
146
0.0
  0
ENDTAB
  0
TABLE
  2
LTYPE
  5
5
330
0
100
AcDbSymbolTable
 70
     7
  0
LTYPE
  5
14
330
5
100
AcDbSymbolTableRecord
100
AcDbLinetypeTableRecord
  2
ByBlock
 70
     0
  3

 72
    65
 73
     0
 40
0.0
  0
LTYPE
  5
15
330
5
100
AcDbSymbolTableRecord
100
AcDbLinetypeTableRecord
  2
ByLayer
 70
     0
  3

 72
    65
 73
     0
 40
0.0
  0
LTYPE
  5
16
330
5
100
AcDbSymbolTableRecord
100
AcDbLinetypeTableRecord
  2
Continuous
 70
     0
  3
Solid line
 72
    65
 73
     0
 40
0.0
  0
LTYPE
  5
40
330
5
100
AcDbSymbolTableRecord
100
AcDbLinetypeTableRecord
  2
DASHED
 70
     0
  3
ICAD/SX(2) Dashed __ __ __ __ __ __ __ __ __ __ __ __ __ _
 72
    65
 73
     2
 40
19.05
 49
12.7
 74
     0
 49
-6.35
 74
     0
  0
LTYPE
  5
41
330
5
100
AcDbSymbolTableRecord
100
AcDbLinetypeTableRecord
  2
CENTER
 70
     0
  3
ICAD/SX(3) Center ____ _ ____ _ ____ _ ____ _ ____ _ ____
 72
    65
 73
     4
 40
50.8
 49
31.75
 74
     0
 49
-6.35
 74
     0
 49
6.35
 74
     0
 49
-6.35
 74
     0
  0
LTYPE
  5
42
330
5
100
AcDbSymbolTableRecord
100
AcDbLinetypeTableRecord
  2
PHANTOM
 70
     0
  3
ICAD/SX(4) Phantom ______  __  __  ______  __  __  ______
 72
    65
 73
     6
 40
63.5
 49
31.75
 74
     0
 49
-6.35
 74
     0
 49
6.35
 74
     0
 49
-6.35
 74
     0
 49
6.35
 74
     0
 49
-6.35
 74
     0
  0
LTYPE
  5
43
330
5
100
AcDbSymbolTableRecord
100
AcDbLinetypeTableRecord
  2
DOT
 70
     0
  3
ICAD/SX(5) Dot . . . . . . . . . . . . . . . . . . . . . . . .
 72
    65
 73
     2
 40
6.35
 49
0.0
 74
     0
 49
-6.35
 74
     0
  0
LTYPE
  5
44
330
5
100
AcDbSymbolTableRecord
100
AcDbLinetypeTableRecord
  2
HIDDEN
 70
     0
  3
ICAD/SX(6) Hidden __ __ __ __ __ __ __ __ __ __ __ __ __ __
 72
    65
 73
     2
 40
9.525
 49
6.35
 74
     0
 49
-3.175
 74
     0
  0
LTYPE
  5
45
330
5
100
AcDbSymbolTableRecord
100
AcDbLinetypeTableRecord
  2
DOTSX
 70
     0
  3
ICAD/SX(5) Dot . . . . . . . . . . . . . . . . . . . . . . . .
 72
    65
 73
     2
 40
6.35
 49
3.175
 74
     0
 49
-3.175
 74
     0
  0
ENDTAB
  0
TABLE
  2
LAYER
  5
2
330
0
100
AcDbSymbolTable
 70
     7
  0
LAYER
  5
10
330
2
100
AcDbSymbolTableRecord
100
AcDbLayerTableRecord
  2
0
 70
     0
 62
     7
  6
Continuous
370
    -3
390
F
  0
LAYER
  5
46
330
2
100
AcDbSymbolTableRecord
100
AcDbLayerTableRecord
  2
NoLayerName_001
 70
     0
 62
     7
  6
Continuous
370
    -3
390
F
  0
LAYER
  5
47
330
2
100
AcDbSymbolTableRecord
100
AcDbLayerTableRecord
  2
NoLayerName_002
 70
     0
 62
     7
  6
Continuous
370
    -3
390
F
  0
LAYER
  5
48
330
2
100
AcDbSymbolTableRecord
100
AcDbLayerTableRecord
  2
NoLayerName_003
 70
     0
 62
     7
  6
Continuous
370
    -3
390
F
  0
LAYER
  5
49
330
2
100
AcDbSymbolTableRecord
100
AcDbLayerTableRecord
  2
NoLayerName_004
 70
     0
 62
     7
  6
Continuous
370
    -3
390
F
  0
LAYER
  5
4A
330
2
100
AcDbSymbolTableRecord
100
AcDbLayerTableRecord
  2
Defpoints
 70
     0
 62
     7
  6
Continuous
290
     0
370
    -3
390
F
  0
LAYER
  5
4B
330
2
100
AcDbSymbolTableRecord
100
AcDbLayerTableRecord
  2
SX_DraftLine
 70
     0
 62
     7
  6
Continuous
290
     0
370
    -3
390
F
  0
ENDTAB
  0
TABLE
  2
STYLE
  5
3
330
0
100
AcDbSymbolTable
 70
     2
  0
STYLE
  5
11
330
3
100
AcDbSymbolTableRecord
100
AcDbTextStyleTableRecord
  2
Standard
 70
     0
 40
0.0
 41
1.0
 50
0.0
 71
     0
 42
2.5
  3
txt
  4
extfont2
  0
STYLE
  5
3F
330
3
100
AcDbSymbolTableRecord
100
AcDbTextStyleTableRecord
  2

 70
     1
 40
0.0
 41
1.0
 50
0.0
 71
     0
 42
2.5
  3
ltypeshp.shx
  4

  0
ENDTAB
  0
TABLE
  2
VIEW
  5
6
330
0
100
AcDbSymbolTable
 70
     0
  0
ENDTAB
  0
TABLE
  2
UCS
  5
7
330
0
100
AcDbSymbolTable
 70
     0
  0
ENDTAB
  0
TABLE
  2
APPID
  5
9
330
0
100
AcDbSymbolTable
 70
     1
  0
APPID
  5
12
330
9
100
AcDbSymbolTableRecord
100
AcDbRegAppTableRecord
  2
ACAD
 70
     0
  0
ENDTAB
  0
TABLE
  2
DIMSTYLE
  5
A
330
0
100
AcDbSymbolTable
 70
     1
100
AcDbDimStyleTable
  0
DIMSTYLE
105
27
330
A
100
AcDbSymbolTableRecord
100
AcDbDimStyleTableRecord
  2
Standard
 70
     0
 41
2.5
 42
0.625
 43
3.75
 44
1.25
 73
     0
 74
     0
 77
     1
140
2.5
141
2.5
143
0.03937007874016
146
0.75
147
0.625
171
     3
172
     1
178
     0
271
     2
272
     2
274
     3
283
     0
284
     8
340
11
  0
ENDTAB
  0
TABLE
  2
BLOCK_RECORD
  5
1
330
0
100
AcDbSymbolTable
 70
     5
  0
BLOCK_RECORD
  5
1F
330
1
100
AcDbSymbolTableRecord
100
AcDbBlockTableRecord
  2
*Model_Space
340
22
  0
BLOCK_RECORD
  5
1B
330
1
100
AcDbSymbolTableRecord
100
AcDbBlockTableRecord
  2
*Paper_Space
340
1E
  0
BLOCK_RECORD
  5
23
330
1
100
AcDbSymbolTableRecord
100
AcDbBlockTableRecord
  2
*Paper_Space0
340
0
  0
BLOCK_RECORD
  5
4C
330
1
100
AcDbSymbolTableRecord
100
AcDbBlockTableRecord
  2
JZB_0001
340
0
102
{BLKREFS
331
301
102
}
  0
BLOCK_RECORD
  5
4F
330
1
100
AcDbSymbolTableRecord
100
AcDbBlockTableRecord
  2
JZB_0002
340
0
102
{BLKREFS
331
302
102
}
  0
BLOCK_RECORD
  5
52
330
1
100
AcDbSymbolTableRecord
100
AcDbBlockTableRecord
  2
JZB_0003
340
0
102
{BLKREFS
331
303
102
}
  0
BLOCK_RECORD
  5
55
330
1
100
AcDbSymbolTableRecord
100
AcDbBlockTableRecord
  2
JZB_0004
340
0
102
{BLKREFS
331
304
102
}
  0
ENDTAB
  0
ENDSEC
  0
SECTION
  2
BLOCKS
  0
BLOCK
  5
20
330
1F
100
AcDbEntity
  8
0
100
AcDbBlockBegin
  2
*Model_Space
 70
     0
 10
0.0
 20
0.0
 30
0.0
  3
*Model_Space
  1

  0
ENDBLK
  5
21
330
1F
100
AcDbEntity
  8
0
100
AcDbBlockEnd
  0
BLOCK
  5
1C
330
1B
100
AcDbEntity
 67
     1
  8
0
100
AcDbBlockBegin
  2
*Paper_Space
 70
     0
 10
0.0
 20
0.0
 30
0.0
  3
*Paper_Space
  1

  0
ENDBLK
  5
1D
330
1B
100
AcDbEntity
 67
     1
  8
0
100
AcDbBlockEnd
  0
BLOCK
  5
24
330
23
100
AcDbEntity
  8
0
100
AcDbBlockBegin
  2
*Paper_Space0
 70
     0
 10
0.0
 20
0.0
 30
0.0
  3
*Paper_Space0
  1

  0
ENDBLK
  5
25
330
23
100
AcDbEntity
  8
0
100
AcDbBlockEnd
  0
BLOCK
  5
4D
330
4C
100
AcDbEntity
  8
0
100
AcDbBlockBegin
  2
JZB_0001
 70
     0
 10
0.0
 20
0.0
 30
0.0
  3
JZB_0001
  1

  0
CIRCLE
  5
58
330
4C
100
AcDbEntity
  8
NoLayerName_001
  6
Continuous
 62
     7
370
    50
100
AcDbCircle
 10
4.699992787283747
 20
4.699987104391255
 30
0.0
 40
4.7
  0
ARC
  5
59
330
4C
100
AcDbEntity
  8
NoLayerName_001
  6
Continuous
 62
     7
370
    50
100
AcDbCircle
 10
4.699992787283747
 20
4.699987104391255
 30
0.0
 40
2.300000000000007
100
AcDbArc
 50
350.9949371964597
 51
9.005062803540236
  0
ARC
  5
5A
330
4C
100
AcDbEntity
  8
NoLayerName_001
  6
Continuous
 62
     7
370
    50
100
AcDbCircle
 10
4.699992787283747
 20
4.699987104391255
 30
0.0
 40
2.300000000000007
100
AcDbArc
 50
80.99493719645962
 51
99.00506280354033
  0
ARC
  5
5B
330
4C
100
AcDbEntity
  8
NoLayerName_001
  6
Continuous
 62
     7
370
    50
100
AcDbCircle
 10
4.699992787283747
 20
4.699987104391255
 30
0.0
 40
2.300000000000007
100
AcDbArc
 50
170.9949371964597
 51
189.0050628035403
  0
ARC
  5
5C
330
4C
100
AcDbEntity
  8
NoLayerName_001
  6
Continuous
 62
     7
370
    50
100
AcDbCircle
 10
4.699992787283747
 20
4.699987104391255
 30
0.0
 40
2.300000000000007
100
AcDbArc
 50
260.9949371964598
 51
279.0050628035402
  0
LINE
  5
5D
330
4C
100
AcDbEntity
  8
NoLayerName_001
  6
Continuous
 62
     7
370
    50
100
AcDbLine
 10
5.085231606375658
 20
3.874266700067835
 30
0.0
 11
5.250361154392365
 21
4.212832446724732
 31
0.0
  0
LINE
  5
5E
330
4C
100
AcDbEntity
  8
NoLayerName_001
  6
Continuous
 62
     7
370
    50
100
AcDbLine
 10
5.477372700360434
 20
4.313904498885961
 30
0.0
 11
5.250361154392365
 21
4.212832446724732
 31
0.0
  0
LINE
  5
5F
330
4C
100
AcDbEntity
  8
NoLayerName_001
  6
Continuous
 62
     7
370
    50
100
AcDbLine
 10
5.477372700360434
 20
4.313904498885961
 30
0.0
 11
6.971644168988249
 21
4.339987104391241
 31
0.0
  0
LINE
  5
60
330
4C
100
AcDbEntity
  8
NoLayerName_001
  6
Continuous
 62
     7
370
    50
100
AcDbLine
 10
5.085231606375658
 20
3.874266700067835
 30
0.0
 11
5.059992787283733
 21
2.428335722686711
 31
0.0
  0
LINE
  5
61
330
4C
100
AcDbEntity
  8
NoLayerName_001
  6
Continuous
 62
     7
370
    50
100
AcDbLine
 10
5.477372700360462
 20
5.086069709896549
 30
0.0
 11
5.250361154392394
 21
5.187141762057749
 31
0.0
  0
LINE
  5
62
330
4C
100
AcDbEntity
  8
NoLayerName_001
  6
Continuous
 62
     7
370
    50
100
AcDbLine
 10
5.085231606375686
 20
5.525707508714675
 30
0.0
 11
5.250361154392394
 21
5.187141762057749
 31
0.0
  0
LINE
  5
63
330
4C
100
AcDbEntity
  8
NoLayerName_001
  6
Continuous
 62
     7
370
    50
100
AcDbLine
 10
5.085231606375686
 20
5.525707508714675
 30
0.0
 11
5.059992787283761
 21
6.971638486095756
 31
0.0
  0
LINE
  5
64
330
4C
100
AcDbEntity
  8
NoLayerName_001
  6
Continuous
 62
     7
370
    50
100
AcDbLine
 10
5.477372700360462
 20
5.086069709896549
 30
0.0
 11
6.971644168988277
 21
5.059987104391269
 31
0.0
  0
LINE
  5
65
330
4C
100
AcDbEntity
  8
NoLayerName_001
  6
Continuous
 62
     7
370
    50
100
AcDbLine
 10
4.314753968191837
 20
5.525707508714675
 30
0.0
 11
4.149624420175101
 21
5.187141762057749
 31
0.0
  0
LINE
  5
66
330
4C
100
AcDbEntity
  8
NoLayerName_001
  6
Continuous
 62
     7
370
    50
100
AcDbLine
 10
3.922612874207061
 20
5.086069709896549
 30
0.0
 11
4.149624420175101
 21
5.187141762057749
 31
0.0
  0
LINE
  5
67
330
4C
100
AcDbEntity
  8
NoLayerName_001
  6
Continuous
 62
     7
370
    50
100
AcDbLine
 10
3.922612874207061
 20
5.086069709896549
 30
0.0
 11
2.428341405579246
 21
5.059987104391269
 31
0.0
  0
LINE
  5
68
330
4C
100
AcDbEntity
  8
NoLayerName_001
  6
Continuous
 62
     7
370
    50
100
AcDbLine
 10
4.314753968191837
 20
5.525707508714675
 30
0.0
 11
4.339992787283762
 21
6.971638486095756
 31
0.0
  0
LINE
  5
69
330
4C
100
AcDbEntity
  8
NoLayerName_001
  6
Continuous
 62
     7
370
    50
100
AcDbLine
 10
3.922612874207033
 20
4.313904498885961
 30
0.0
 11
4.149624420175073
 21
4.212832446724761
 31
0.0
  0
LINE
  5
6A
330
4C
100
AcDbEntity
  8
NoLayerName_001
  6
Continuous
 62
     7
370
    50
100
AcDbLine
 10
4.314753968191809
 20
3.874266700067835
 30
0.0
 11
4.149624420175073
 21
4.212832446724761
 31
0.0
  0
LINE
  5
6B
330
4C
100
AcDbEntity
  8
NoLayerName_001
  6
Continuous
 62
     7
370
    50
100
AcDbLine
 10
4.314753968191809
 20
3.874266700067835
 30
0.0
 11
4.339992787283734
 21
2.428335722686711
 31
0.0
  0
LINE
  5
6C
330
4C
100
AcDbEntity
  8
NoLayerName_001
  6
Continuous
 62
     7
370
    50
100
AcDbLine
 10
3.922612874207033
 20
4.313904498885961
 30
0.0
 11
2.428341405579218
 21
4.339987104391241
 31
0.0
  0
ENDBLK
  5
4E
330
4C
100
AcDbEntity
  8
0
100
AcDbBlockEnd
  0
BLOCK
  5
50
330
4F
100
AcDbEntity
  8
0
100
AcDbBlockBegin
  2
JZB_0002
 70
     0
 10
0.0
 20
0.0
 30
0.0
  3
JZB_0002
  1

  0
CIRCLE
  5
6D
330
4F
100
AcDbEntity
  8
NoLayerName_001
  6
Continuous
 62
     7
370
    50
100
AcDbCircle
 10
4.699992787283747
 20
4.699987104391596
 30
0.0
 40
4.7
  0
ARC
  5
6E
330
4F
100
AcDbEntity
  8
NoLayerName_001
  6
Continuous
 62
     7
370
    50
100
AcDbCircle
 10
4.699992787283747
 20
4.699987104391596
 30
0.0
 40
2.300000000000007
100
AcDbArc
 50
350.9949371964597
 51
9.005062803540236
  0
ARC
  5
6F
330
4F
100
AcDbEntity
  8
NoLayerName_001
  6
Continuous
 62
     7
370
    50
100
AcDbCircle
 10
4.699992787283747
 20
4.699987104391596
 30
0.0
 40
2.300000000000007
100
AcDbArc
 50
80.99493719645962
 51
99.00506280354033
  0
ARC
  5
70
330
4F
100
AcDbEntity
  8
NoLayerName_001
  6
Continuous
 62
     7
370
    50
100
AcDbCircle
 10
4.699992787283747
 20
4.699987104391596
 30
0.0
 40
2.300000000000007
100
AcDbArc
 50
170.9949371964597
 51
189.0050628035403
  0
ARC
  5
71
330
4F
100
AcDbEntity
  8
NoLayerName_001
  6
Continuous
 62
     7
370
    50
100
AcDbCircle
 10
4.699992787283747
 20
4.699987104391596
 30
0.0
 40
2.300000000000007
100
AcDbArc
 50
260.9949371964598
 51
279.0050628035402
  0
LINE
  5
72
330
4F
100
AcDbEntity
  8
NoLayerName_001
  6
Continuous
 62
     7
370
    50
100
AcDbLine
 10
5.085231606375658
 20
3.874266700068176
 30
0.0
 11
5.250361154392365
 21
4.212832446725074
 31
0.0
  0
LINE
  5
73
330
4F
100
AcDbEntity
  8
NoLayerName_001
  6
Continuous
 62
     7
370
    50
100
AcDbLine
 10
5.477372700360434
 20
4.313904498886302
 30
0.0
 11
5.250361154392365
 21
4.212832446725074
 31
0.0
  0
LINE
  5
74
330
4F
100
AcDbEntity
  8
NoLayerName_001
  6
Continuous
 62
     7
370
    50
100
AcDbLine
 10
5.477372700360434
 20
4.313904498886302
 30
0.0
 11
6.971644168988249
 21
4.339987104391582
 31
0.0
  0
LINE
  5
75
330
4F
100
AcDbEntity
  8
NoLayerName_001
  6
Continuous
 62
     7
370
    50
100
AcDbLine
 10
5.085231606375658
 20
3.874266700068176
 30
0.0
 11
5.059992787283733
 21
2.428335722687052
 31
0.0
  0
LINE
  5
76
330
4F
100
AcDbEntity
  8
NoLayerName_001
  6
Continuous
 62
     7
370
    50
100
AcDbLine
 10
5.477372700360462
 20
5.08606970989689
 30
0.0
 11
5.250361154392394
 21
5.18714176205809
 31
0.0
  0
LINE
  5
77
330
4F
100
AcDbEntity
  8
NoLayerName_001
  6
Continuous
 62
     7
370
    50
100
AcDbLine
 10
5.085231606375686
 20
5.525707508715016
 30
0.0
 11
5.250361154392394
 21
5.18714176205809
 31
0.0
  0
LINE
  5
78
330
4F
100
AcDbEntity
  8
NoLayerName_001
  6
Continuous
 62
     7
370
    50
100
AcDbLine
 10
5.085231606375686
 20
5.525707508715016
 30
0.0
 11
5.059992787283761
 21
6.971638486096097
 31
0.0
  0
LINE
  5
79
330
4F
100
AcDbEntity
  8
NoLayerName_001
  6
Continuous
 62
     7
370
    50
100
AcDbLine
 10
5.477372700360462
 20
5.08606970989689
 30
0.0
 11
6.971644168988277
 21
5.05998710439161
 31
0.0
  0
LINE
  5
7A
330
4F
100
AcDbEntity
  8
NoLayerName_001
  6
Continuous
 62
     7
370
    50
100
AcDbLine
 10
4.314753968191837
 20
5.525707508715016
 30
0.0
 11
4.149624420175101
 21
5.18714176205809
 31
0.0
  0
LINE
  5
7B
330
4F
100
AcDbEntity
  8
NoLayerName_001
  6
Continuous
 62
     7
370
    50
100
AcDbLine
 10
3.922612874207061
 20
5.08606970989689
 30
0.0
 11
4.149624420175101
 21
5.18714176205809
 31
0.0
  0
LINE
  5
7C
330
4F
100
AcDbEntity
  8
NoLayerName_001
  6
Continuous
 62
     7
370
    50
100
AcDbLine
 10
3.922612874207061
 20
5.08606970989689
 30
0.0
 11
2.428341405579246
 21
5.05998710439161
 31
0.0
  0
LINE
  5
7D
330
4F
100
AcDbEntity
  8
NoLayerName_001
  6
Continuous
 62
     7
370
    50
100
AcDbLine
 10
4.314753968191837
 20
5.525707508715016
 30
0.0
 11
4.339992787283762
 21
6.971638486096097
 31
0.0
  0
LINE
  5
7E
330
4F
100
AcDbEntity
  8
NoLayerName_001
  6
Continuous
 62
     7
370
    50
100
AcDbLine
 10
3.922612874207033
 20
4.313904498886302
 30
0.0
 11
4.149624420175073
 21
4.212832446725102
 31
0.0
  0
LINE
  5
7F
330
4F
100
AcDbEntity
  8
NoLayerName_001
  6
Continuous
 62
     7
370
    50
100
AcDbLine
 10
4.314753968191809
 20
3.874266700068176
 30
0.0
 11
4.149624420175073
 21
4.212832446725102
 31
0.0
  0
LINE
  5
80
330
4F
100
AcDbEntity
  8
NoLayerName_001
  6
Continuous
 62
     7
370
    50
100
AcDbLine
 10
4.314753968191809
 20
3.874266700068176
 30
0.0
 11
4.339992787283734
 21
2.428335722687052
 31
0.0
  0
LINE
  5
81
330
4F
100
AcDbEntity
  8
NoLayerName_001
  6
Continuous
 62
     7
370
    50
100
AcDbLine
 10
3.922612874207033
 20
4.313904498886302
 30
0.0
 11
2.428341405579218
 21
4.339987104391582
 31
0.0
  0
ENDBLK
  5
51
330
4F
100
AcDbEntity
  8
0
100
AcDbBlockEnd
  0
BLOCK
  5
53
330
52
100
AcDbEntity
  8
0
100
AcDbBlockBegin
  2
JZB_0003
 70
     0
 10
0.0
 20
0.0
 30
0.0
  3
JZB_0003
  1

  0
CIRCLE
  5
82
330
52
100
AcDbEntity
  8
NoLayerName_001
  6
Continuous
 62
     7
370
    50
100
AcDbCircle
 10
4.70000804607281
 20
4.699987104391937
 30
0.0
 40
4.7
  0
ARC
  5
83
330
52
100
AcDbEntity
  8
NoLayerName_001
  6
Continuous
 62
     7
370
    50
100
AcDbCircle
 10
4.70000804607281
 20
4.699987104391937
 30
0.0
 40
2.300000000000007
100
AcDbArc
 50
350.9949371964597
 51
9.005062803540236
  0
ARC
  5
84
330
52
100
AcDbEntity
  8
NoLayerName_001
  6
Continuous
 62
     7
370
    50
100
AcDbCircle
 10
4.70000804607281
 20
4.699987104391937
 30
0.0
 40
2.300000000000007
100
AcDbArc
 50
80.99493719645962
 51
99.00506280354033
  0
ARC
  5
85
330
52
100
AcDbEntity
  8
NoLayerName_001
  6
Continuous
 62
     7
370
    50
100
AcDbCircle
 10
4.70000804607281
 20
4.699987104391937
 30
0.0
 40
2.300000000000007
100
AcDbArc
 50
170.9949371964597
 51
189.0050628035403
  0
ARC
  5
86
330
52
100
AcDbEntity
  8
NoLayerName_001
  6
Continuous
 62
     7
370
    50
100
AcDbCircle
 10
4.70000804607281
 20
4.699987104391937
 30
0.0
 40
2.300000000000007
100
AcDbArc
 50
260.9949371964598
 51
279.0050628035402
  0
LINE
  5
87
330
52
100
AcDbEntity
  8
NoLayerName_001
  6
Continuous
 62
     7
370
    50
100
AcDbLine
 10
5.08524686516472
 20
3.874266700068517
 30
0.0
 11
5.250376413181428
 21
4.212832446725415
 31
0.0
  0
LINE
  5
88
330
52
100
AcDbEntity
  8
NoLayerName_001
  6
Continuous
 62
     7
370
    50
100
AcDbLine
 10
5.477387959149496
 20
4.313904498886643
 30
0.0
 11
5.250376413181428
 21
4.212832446725415
 31
0.0
  0
LINE
  5
89
330
52
100
AcDbEntity
  8
NoLayerName_001
  6
Continuous
 62
     7
370
    50
100
AcDbLine
 10
5.477387959149496
 20
4.313904498886643
 30
0.0
 11
6.971659427777311
 21
4.339987104391923
 31
0.0
  0
LINE
  5
8A
330
52
100
AcDbEntity
  8
NoLayerName_001
  6
Continuous
 62
     7
370
    50
100
AcDbLine
 10
5.08524686516472
 20
3.874266700068517
 30
0.0
 11
5.060008046072795
 21
2.428335722687393
 31
0.0
  0
LINE
  5
8B
330
52
100
AcDbEntity
  8
NoLayerName_001
  6
Continuous
 62
     7
370
    50
100
AcDbLine
 10
5.477387959149496
 20
5.086069709897231
 30
0.0
 11
5.250376413181428
 21
5.187141762058431
 31
0.0
  0
LINE
  5
8C
330
52
100
AcDbEntity
  8
NoLayerName_001
  6
Continuous
 62
     7
370
    50
100
AcDbLine
 10
5.08524686516472
 20
5.525707508715357
 30
0.0
 11
5.250376413181428
 21
5.187141762058431
 31
0.0
  0
LINE
  5
8D
330
52
100
AcDbEntity
  8
NoLayerName_001
  6
Continuous
 62
     7
370
    50
100
AcDbLine
 10
5.08524686516472
 20
5.525707508715357
 30
0.0
 11
5.060008046072795
 21
6.971638486096438
 31
0.0
  0
LINE
  5
8E
330
52
100
AcDbEntity
  8
NoLayerName_001
  6
Continuous
 62
     7
370
    50
100
AcDbLine
 10
5.477387959149496
 20
5.086069709897231
 30
0.0
 11
6.971659427777311
 21
5.059987104391951
 31
0.0
  0
LINE
  5
8F
330
52
100
AcDbEntity
  8
NoLayerName_001
  6
Continuous
 62
     7
370
    50
100
AcDbLine
 10
4.3147692269809
 20
5.525707508715357
 30
0.0
 11
4.149639678964164
 21
5.187141762058431
 31
0.0
  0
LINE
  5
90
330
52
100
AcDbEntity
  8
NoLayerName_001
  6
Continuous
 62
     7
370
    50
100
AcDbLine
 10
3.922628132996124
 20
5.086069709897231
 30
0.0
 11
4.149639678964164
 21
5.187141762058431
 31
0.0
  0
LINE
  5
91
330
52
100
AcDbEntity
  8
NoLayerName_001
  6
Continuous
 62
     7
370
    50
100
AcDbLine
 10
3.922628132996124
 20
5.086069709897231
 30
0.0
 11
2.428356664368309
 21
5.059987104391951
 31
0.0
  0
LINE
  5
92
330
52
100
AcDbEntity
  8
NoLayerName_001
  6
Continuous
 62
     7
370
    50
100
AcDbLine
 10
4.3147692269809
 20
5.525707508715357
 30
0.0
 11
4.340008046072825
 21
6.971638486096438
 31
0.0
  0
LINE
  5
93
330
52
100
AcDbEntity
  8
NoLayerName_001
  6
Continuous
 62
     7
370
    50
100
AcDbLine
 10
3.922628132996124
 20
4.313904498886643
 30
0.0
 11
4.149639678964164
 21
4.212832446725443
 31
0.0
  0
LINE
  5
94
330
52
100
AcDbEntity
  8
NoLayerName_001
  6
Continuous
 62
     7
370
    50
100
AcDbLine
 10
4.3147692269809
 20
3.874266700068517
 30
0.0
 11
4.149639678964164
 21
4.212832446725443
 31
0.0
  0
LINE
  5
95
330
52
100
AcDbEntity
  8
NoLayerName_001
  6
Continuous
 62
     7
370
    50
100
AcDbLine
 10
4.3147692269809
 20
3.874266700068517
 30
0.0
 11
4.340008046072825
 21
2.428335722687393
 31
0.0
  0
LINE
  5
96
330
52
100
AcDbEntity
  8
NoLayerName_001
  6
Continuous
 62
     7
370
    50
100
AcDbLine
 10
3.922628132996124
 20
4.313904498886643
 30
0.0
 11
2.428356664368309
 21
4.339987104391923
 31
0.0
  0
ENDBLK
  5
54
330
52
100
AcDbEntity
  8
0
100
AcDbBlockEnd
  0
BLOCK
  5
56
330
55
100
AcDbEntity
  8
0
100
AcDbBlockBegin
  2
JZB_0004
 70
     0
 10
0.0
 20
0.0
 30
0.0
  3
JZB_0004
  1

  0
CIRCLE
  5
97
330
55
100
AcDbEntity
  8
NoLayerName_001
  6
Continuous
 62
     7
370
    50
100
AcDbCircle
 10
4.70000804607281
 20
4.699987104391596
 30
0.0
 40
4.7
  0
ARC
  5
98
330
55
100
AcDbEntity
  8
NoLayerName_001
  6
Continuous
 62
     7
370
    50
100
AcDbCircle
 10
4.70000804607281
 20
4.699987104391596
 30
0.0
 40
2.300000000000007
100
AcDbArc
 50
80.99493719645974
 51
99.00506280354027
  0
ARC
  5
99
330
55
100
AcDbEntity
  8
NoLayerName_001
  6
Continuous
 62
     7
370
    50
100
AcDbCircle
 10
4.70000804607281
 20
4.699987104391596
 30
0.0
 40
2.300000000000007
100
AcDbArc
 50
170.9949371964596
 51
189.0050628035404
  0
ARC
  5
9A
330
55
100
AcDbEntity
  8
NoLayerName_001
  6
Continuous
 62
     7
370
    50
100
AcDbCircle
 10
4.70000804607281
 20
4.699987104391596
 30
0.0
 40
2.300000000000007
100
AcDbArc
 50
260.9949371964597
 51
279.0050628035403
  0
ARC
  5
9B
330
55
100
AcDbEntity
  8
NoLayerName_001
  6
Continuous
 62
     7
370
    50
100
AcDbCircle
 10
4.70000804607281
 20
4.699987104391596
 30
0.0
 40
2.300000000000007
100
AcDbArc
 50
350.9949371964598
 51
9.005062803540186
  0
LINE
  5
9C
330
55
100
AcDbEntity
  8
NoLayerName_001
  6
Continuous
 62
     7
370
    50
100
AcDbLine
 10
5.52572845039623
 20
5.085225923483506
 30
0.0
 11
5.187162703739332
 21
5.250355471500214
 31
0.0
  0
LINE
  5
9D
330
55
100
AcDbEntity
  8
NoLayerName_001
  6
Continuous
 62
     7
370
    50
100
AcDbLine
 10
5.086090651578104
 20
5.477367017468282
 30
0.0
 11
5.187162703739332
 21
5.250355471500214
 31
0.0
  0
LINE
  5
9E
330
55
100
AcDbEntity
  8
NoLayerName_001
  6
Continuous
 62
     7
370
    50
100
AcDbLine
 10
5.086090651578104
 20
5.477367017468282
 30
0.0
 11
5.060008046072824
 21
6.971638486096097
 31
0.0
  0
LINE
  5
9F
330
55
100
AcDbEntity
  8
NoLayerName_001
  6
Continuous
 62
     7
370
    50
100
AcDbLine
 10
5.52572845039623
 20
5.085225923483506
 30
0.0
 11
6.971659427777354
 21
5.059987104391581
 31
0.0
  0
LINE
  5
A0
330
55
100
AcDbEntity
  8
NoLayerName_001
  6
Continuous
 62
     7
370
    50
100
AcDbLine
 10
4.313925440567516
 20
5.477367017468282
 30
0.0
 11
4.212853388406316
 21
5.250355471500214
 31
0.0
  0
LINE
  5
A1
330
55
100
AcDbEntity
  8
NoLayerName_001
  6
Continuous
 62
     7
370
    50
100
AcDbLine
 10
3.87428764174939
 20
5.085225923483506
 30
0.0
 11
4.212853388406316
 21
5.250355471500214
 31
0.0
  0
LINE
  5
A2
330
55
100
AcDbEntity
  8
NoLayerName_001
  6
Continuous
 62
     7
370
    50
100
AcDbLine
 10
3.87428764174939
 20
5.085225923483506
 30
0.0
 11
2.428356664368309
 21
5.059987104391581
 31
0.0
  0
LINE
  5
A3
330
55
100
AcDbEntity
  8
NoLayerName_001
  6
Continuous
 62
     7
370
    50
100
AcDbLine
 10
4.313925440567516
 20
5.477367017468282
 30
0.0
 11
4.340008046072796
 21
6.971638486096097
 31
0.0
  0
LINE
  5
A4
330
55
100
AcDbEntity
  8
NoLayerName_001
  6
Continuous
 62
     7
370
    50
100
AcDbLine
 10
3.87428764174939
 20
4.314748285299686
 30
0.0
 11
4.212853388406316
 21
4.14961873728295
 31
0.0
  0
LINE
  5
A5
330
55
100
AcDbEntity
  8
NoLayerName_001
  6
Continuous
 62
     7
370
    50
100
AcDbLine
 10
4.313925440567516
 20
3.92260719131491
 30
0.0
 11
4.212853388406316
 21
4.14961873728295
 31
0.0
  0
LINE
  5
A6
330
55
100
AcDbEntity
  8
NoLayerName_001
  6
Continuous
 62
     7
370
    50
100
AcDbLine
 10
4.313925440567516
 20
3.92260719131491
 30
0.0
 11
4.340008046072796
 21
2.428335722687095
 31
0.0
  0
LINE
  5
A7
330
55
100
AcDbEntity
  8
NoLayerName_001
  6
Continuous
 62
     7
370
    50
100
AcDbLine
 10
3.87428764174939
 20
4.314748285299686
 30
0.0
 11
2.428356664368309
 21
4.339987104391611
 31
0.0
  0
LINE
  5
A8
330
55
100
AcDbEntity
  8
NoLayerName_001
  6
Continuous
 62
     7
370
    50
100
AcDbLine
 10
5.086090651578104
 20
3.92260719131491
 30
0.0
 11
5.187162703739304
 21
4.14961873728295
 31
0.0
  0
LINE
  5
A9
330
55
100
AcDbEntity
  8
NoLayerName_001
  6
Continuous
 62
     7
370
    50
100
AcDbLine
 10
5.52572845039623
 20
4.314748285299686
 30
0.0
 11
5.187162703739304
 21
4.14961873728295
 31
0.0
  0
LINE
  5
AA
330
55
100
AcDbEntity
  8
NoLayerName_001
  6
Continuous
 62
     7
370
    50
100
AcDbLine
 10
5.52572845039623
 20
4.314748285299686
 30
0.0
 11
6.971659427777354
 21
4.339987104391611
 31
0.0
  0
LINE
  5
AB
330
55
100
AcDbEntity
  8
NoLayerName_001
  6
Continuous
 62
     7
370
    50
100
AcDbLine
 10
5.086090651578104
 20
3.92260719131491
 30
0.0
 11
5.060008046072824
 21
2.428335722687095
 31
0.0
  0
ENDBLK
  5
57
330
55
100
AcDbEntity
  8
0
100
AcDbBlockEnd
  0
ENDSEC
  0
SECTION
  2
ENTITIES
  0
POINT
  5
AC
330
1F
100
AcDbEntity
  8
NoLayerName_001
  6
Continuous
 62
     7
 60
     1
370
    50
100
AcDbPoint
 10
0.0
 20
0.0
 30
0.0
  0
CIRCLE
  5
AD
330
1F
100
AcDbEntity
  8
NoLayerName_001
  6
Continuous
 62
     3
370
    50
100
AcDbCircle
 10
278.9571491593541
 20
402.0192009715791
 30
0.0
 40
3.0
  0
CIRCLE
  5
AE
330
1F
100
AcDbEntity
  8
NoLayerName_001
  6
Continuous
 62
     3
370
    50
100
AcDbCircle
 10
278.9571491593541
 20
342.0192009715791
 30
0.0
 40
3.0
  0
CIRCLE
  5
AF
330
1F
100
AcDbEntity
  8
NoLayerName_001
  6
Continuous
 62
     3
370
    50
100
AcDbCircle
 10
278.9571491593541
 20
372.0192009715791
 30
0.0
 40
3.0
  0
CIRCLE
  5
B0
330
1F
100
AcDbEntity
  8
NoLayerName_001
  6
Continuous
 62
     3
370
    50
100
AcDbCircle
 10
233.9571491593541
 20
353.0192009715791
 30
0.0
 40
3.0
  0
CIRCLE
  5
B1
330
1F
100
AcDbEntity
  8
NoLayerName_001
  6
Continuous
 62
     3
370
    50
100
AcDbCircle
 10
233.9571491593541
 20
391.0192009715791
 30
0.0
 40
3.0
  0
CIRCLE
  5
B2
330
1F
100
AcDbEntity
  8
NoLayerName_001
  6
Continuous
 62
     3
370
    50
100
AcDbCircle
 10
188.9571491593541
 20
342.0192009715791
 30
0.0
 40
3.0
  0
CIRCLE
  5
B3
330
1F
100
AcDbEntity
  8
NoLayerName_001
  6
Continuous
 62
     3
370
    50
100
AcDbCircle
 10
188.9571491593541
 20
402.0192009715791
 30
0.0
 40
3.0
  0
CIRCLE
  5
B4
330
1F
100
AcDbEntity
  8
NoLayerName_001
  6
Continuous
 62
     3
370
    50
100
AcDbCircle
 10
188.9571491593541
 20
372.0192009715791
 30
0.0
 40
3.0
  0
CIRCLE
  5
B5
330
1F
100
AcDbEntity
  8
NoLayerName_001
  6
Continuous
 62
     3
370
    50
100
AcDbCircle
 10
233.9571491593541
 20
372.0192009715791
 30
0.0
 40
5.5
  0
LINE
  5
B6
330
1F
100
AcDbEntity
  8
NoLayerName_001
  6
Continuous
 62
     5
370
    50
100
AcDbLine
 10
193.9924103581096
 20
321.219200971578
 30
0.0
 11
193.9924103581096
 21
317.4192009715778
 31
0.0
  0
LINE
  5
B7
330
1F
100
AcDbEntity
  8
NoLayerName_001
  6
Continuous
 62
     5
370
    50
100
AcDbLine
 10
191.7571491593542
 20
321.219200971578
 30
0.0
 11
193.9924103581098
 21
321.219200971578
 31
0.0
  0
LINE
  5
B8
330
1F
100
AcDbEntity
  8
NoLayerName_001
  6
Continuous
 62
     5
370
    50
100
AcDbLine
 10
175.9218879605986
 20
321.219200971578
 30
0.0
 11
175.9218879605986
 21
317.4192009715778
 31
0.0
  0
LINE
  5
B9
330
1F
100
AcDbEntity
  8
NoLayerName_001
  6
Continuous
 62
     5
370
    50
100
AcDbLine
 10
175.9218879605986
 20
321.219200971578
 30
0.0
 11
191.757149159354
 21
321.219200971578
 31
0.0
  0
LINE
  5
BA
330
1F
100
AcDbEntity
  8
NoLayerName_001
  6
Continuous
 62
     5
370
    50
100
AcDbLine
 10
242.9924103581096
 20
321.2192009715783
 30
0.0
 11
242.9924103581096
 21
317.4192009715782
 31
0.0
  0
LINE
  5
BB
330
1F
100
AcDbEntity
  8
NoLayerName_001
  6
Continuous
 62
     5
370
    50
100
AcDbLine
 10
240.7571491593542
 20
321.2192009715783
 30
0.0
 11
242.9924103581098
 21
321.2192009715783
 31
0.0
  0
LINE
  5
BC
330
1F
100
AcDbEntity
  8
NoLayerName_001
  6
Continuous
 62
     5
370
    50
100
AcDbLine
 10
224.9218879605986
 20
321.2192009715783
 30
0.0
 11
224.9218879605986
 21
317.4192009715782
 31
0.0
  0
LINE
  5
BD
330
1F
100
AcDbEntity
  8
NoLayerName_001
  6
Continuous
 62
     5
370
    50
100
AcDbLine
 10
224.9218879605986
 20
321.2192009715783
 30
0.0
 11
240.757149159354
 21
321.2192009715783
 31
0.0
  0
LINE
  5
BE
330
1F
100
AcDbEntity
  8
NoLayerName_001
  6
Continuous
 62
     5
370
    50
100
AcDbLine
 10
291.9924103581096
 20
321.2192009715783
 30
0.0
 11
291.9924103581096
 21
317.4192009715782
 31
0.0
  0
LINE
  5
BF
330
1F
100
AcDbEntity
  8
NoLayerName_001
  6
Continuous
 62
     5
370
    50
100
AcDbLine
 10
289.7571491593542
 20
321.2192009715783
 30
0.0
 11
291.9924103581098
 21
321.2192009715783
 31
0.0
  0
LINE
  5
C0
330
1F
100
AcDbEntity
  8
NoLayerName_001
  6
Continuous
 62
     5
370
    50
100
AcDbLine
 10
273.9218879605986
 20
321.2192009715783
 30
0.0
 11
273.9218879605986
 21
317.4192009715782
 31
0.0
  0
LINE
  5
C1
330
1F
100
AcDbEntity
  8
NoLayerName_001
  6
Continuous
 62
     5
370
    50
100
AcDbLine
 10
273.9218879605986
 20
321.2192009715783
 30
0.0
 11
289.757149159354
 21
321.2192009715783
 31
0.0
  0
LINE
  5
C2
330
1F
100
AcDbEntity
  8
NoLayerName_001
  6
Continuous
 62
     5
370
    50
100
AcDbLine
 10
291.9924103581096
 20
422.8192009715798
 30
0.0
 11
291.9924103581096
 21
426.61920097158
 31
0.0
  0
LINE
  5
C3
330
1F
100
AcDbEntity
  8
NoLayerName_001
  6
Continuous
 62
     5
370
    50
100
AcDbLine
 10
289.7571491593542
 20
422.8192009715798
 30
0.0
 11
291.9924103581098
 21
422.8192009715798
 31
0.0
  0
LINE
  5
C4
330
1F
100
AcDbEntity
  8
NoLayerName_001
  6
Continuous
 62
     5
370
    50
100
AcDbLine
 10
273.9218879605986
 20
422.8192009715798
 30
0.0
 11
273.9218879605986
 21
426.61920097158
 31
0.0
  0
LINE
  5
C5
330
1F
100
AcDbEntity
  8
NoLayerName_001
  6
Continuous
 62
     5
370
    50
100
AcDbLine
 10
273.9218879605986
 20
422.8192009715798
 30
0.0
 11
289.757149159354
 21
422.8192009715798
 31
0.0
  0
LINE
  5
C6
330
1F
100
AcDbEntity
  8
NoLayerName_001
  6
Continuous
 62
     5
370
    50
100
AcDbLine
 10
242.9924103581096
 20
422.8192009715798
 30
0.0
 11
242.9924103581096
 21
426.61920097158
 31
0.0
  0
LINE
  5
C7
330
1F
100
AcDbEntity
  8
NoLayerName_001
  6
Continuous
 62
     5
370
    50
100
AcDbLine
 10
240.7571491593542
 20
422.8192009715798
 30
0.0
 11
242.9924103581098
 21
422.8192009715798
 31
0.0
  0
LINE
  5
C8
330
1F
100
AcDbEntity
  8
NoLayerName_001
  6
Continuous
 62
     5
370
    50
100
AcDbLine
 10
224.9218879605986
 20
422.8192009715798
 30
0.0
 11
240.757149159354
 21
422.8192009715798
 31
0.0
  0
LINE
  5
C9
330
1F
100
AcDbEntity
  8
NoLayerName_001
  6
Continuous
 62
     5
370
    50
100
AcDbLine
 10
224.9218879605986
 20
422.8192009715798
 30
0.0
 11
224.9218879605986
 21
426.61920097158
 31
0.0
  0
LINE
  5
CA
330
1F
100
AcDbEntity
  8
NoLayerName_001
  6
Continuous
 62
     5
370
    50
100
AcDbLine
 10
193.9924103581096
 20
422.8192009715802
 30
0.0
 11
193.9924103581096
 21
426.6192009715804
 31
0.0
  0
LINE
  5
CB
330
1F
100
AcDbEntity
  8
NoLayerName_001
  6
Continuous
 62
     5
370
    50
100
AcDbLine
 10
191.7571491593542
 20
422.8192009715802
 30
0.0
 11
193.9924103581098
 21
422.8192009715802
 31
0.0
  0
LINE
  5
CC
330
1F
100
AcDbEntity
  8
NoLayerName_001
  6
Continuous
 62
     5
370
    50
100
AcDbLine
 10
175.9218879605986
 20
422.8192009715802
 30
0.0
 11
175.9218879605986
 21
426.6192009715804
 31
0.0
  0
LINE
  5
CD
330
1F
100
AcDbEntity
  8
NoLayerName_001
  6
Continuous
 62
     5
370
    50
100
AcDbLine
 10
175.9218879605986
 20
422.8192009715802
 30
0.0
 11
191.757149159354
 21
422.8192009715802
 31
0.0
  0
ARC
  5
CE
330
1F
100
AcDbEntity
  8
NoLayerName_001
  6
DOTSX
 62
    21
370
    25
100
AcDbCircle
 10
190.8512439963113
 20
208.5544614387509
 30
0.0
 40
0.2
100
AcDbArc
 50
225.0
 51
293.9844880056564
  0
LINE
  5
CF
330
1F
100
AcDbEntity
  8
NoLayerName_001
  6
Continuous
 62
     3
370
    50
100
AcDbLine
 10
308.4571491593541
 20
311.5192009715791
 30
0.0
 11
301.4571491593541
 21
311.5192009715791
 31
0.0
  0
LINE
  5
D0
330
1F
100
AcDbEntity
  8
NoLayerName_001
  6
Continuous
 62
     3
370
    50
100
AcDbLine
 10
301.4571491593541
 20
311.5192009715791
 30
0.0
 11
301.4571491593541
 21
313.5192009715791
 31
0.0
  0
LINE
  5
D1
330
1F
100
AcDbEntity
  8
NoLayerName_001
  6
Continuous
 62
     3
370
    50
100
AcDbLine
 10
308.4571491593541
 20
311.5192009715791
 30
0.0
 11
308.4571491593541
 21
313.5192009715791
 31
0.0
  0
LINE
  5
D2
330
1F
100
AcDbEntity
  8
NoLayerName_001
  6
Continuous
 62
     3
370
    50
100
AcDbLine
 10
159.4571491593541
 20
311.5192009715791
 30
0.0
 11
166.4571491593541
 21
311.5192009715791
 31
0.0
  0
LINE
  5
D3
330
1F
100
AcDbEntity
  8
NoLayerName_001
  6
Continuous
 62
     3
370
    50
100
AcDbLine
 10
166.4571491593541
 20
311.5192009715791
 30
0.0
 11
166.4571491593541
 21
313.5192009715791
 31
0.0
  0
LINE
  5
D4
330
1F
100
AcDbEntity
  8
NoLayerName_001
  6
Continuous
 62
     3
370
    50
100
AcDbLine
 10
159.4571491593541
 20
311.5192009715791
 30
0.0
 11
159.4571491593541
 21
313.5192009715791
 31
0.0
  0
LINE
  5
D5
330
1F
100
AcDbEntity
  8
NoLayerName_001
  6
Continuous
 62
     3
370
    50
100
AcDbLine
 10
159.4571491593541
 20
432.5192009715791
 30
0.0
 11
166.4571491593541
 21
432.5192009715791
 31
0.0
  0
LINE
  5
D6
330
1F
100
AcDbEntity
  8
NoLayerName_001
  6
Continuous
 62
     3
370
    50
100
AcDbLine
 10
166.4571491593541
 20
432.5192009715791
 30
0.0
 11
166.4571491593541
 21
430.5192009715791
 31
0.0
  0
LINE
  5
D7
330
1F
100
AcDbEntity
  8
NoLayerName_001
  6
Continuous
 62
     3
370
    50
100
AcDbLine
 10
159.4571491593541
 20
432.5192009715791
 30
0.0
 11
159.4571491593541
 21
430.5192009715791
 31
0.0
  0
LINE
  5
D8
330
1F
100
AcDbEntity
  8
NoLayerName_001
  6
Continuous
 62
     3
370
    50
100
AcDbLine
 10
308.4571491593541
 20
432.5192009715791
 30
0.0
 11
301.4571491593541
 21
432.5192009715791
 31
0.0
  0
LINE
  5
D9
330
1F
100
AcDbEntity
  8
NoLayerName_001
  6
Continuous
 62
     3
370
    50
100
AcDbLine
 10
301.4571491593541
 20
432.5192009715791
 30
0.0
 11
301.4571491593541
 21
430.5192009715791
 31
0.0
  0
LINE
  5
DA
330
1F
100
AcDbEntity
  8
NoLayerName_001
  6
Continuous
 62
     3
370
    50
100
AcDbLine
 10
308.4571491593541
 20
432.5192009715791
 30
0.0
 11
308.4571491593541
 21
430.5192009715791
 31
0.0
  0
LINE
  5
DB
330
1F
100
AcDbEntity
  8
NoLayerName_001
  6
Continuous
 62
     3
370
    50
100
AcDbLine
 10
325.2071491593541
 20
316.5192009715791
 30
0.0
 11
325.2071491593541
 21
427.5192009715791
 31
0.0
  0
LINE
  5
DC
330
1F
100
AcDbEntity
  8
NoLayerName_001
  6
Continuous
 62
     3
370
    50
100
AcDbLine
 10
233.9571491593541
 20
430.5192009715794
 30
0.0
 11
322.2071491593541
 21
430.5192009715794
 31
0.0
  0
LINE
  5
DD
330
1F
100
AcDbEntity
  8
NoLayerName_001
  6
Continuous
 62
     3
370
    50
100
AcDbLine
 10
322.2071491593541
 20
313.5192009715791
 30
0.0
 11
233.9571491593541
 21
313.5192009715791
 31
0.0
  0
LINE
  5
DE
330
1F
100
AcDbEntity
  8
NoLayerName_001
  6
Continuous
 62
     5
370
    50
100
AcDbLine
 10
317.5071491593538
 20
403.0515279582795
 30
0.0
 11
321.307149159354
 21
403.0515279582795
 31
0.0
  0
LINE
  5
DF
330
1F
100
AcDbEntity
  8
NoLayerName_001
  6
Continuous
 62
     5
370
    50
100
AcDbLine
 10
317.5071491593538
 20
385.3868739848784
 30
0.0
 11
317.5071491593538
 21
403.0515279582795
 31
0.0
  0
LINE
  5
E0
330
1F
100
AcDbEntity
  8
NoLayerName_001
  6
Continuous
 62
     5
370
    50
100
AcDbLine
 10
317.5071491593538
 20
385.3868739848784
 30
0.0
 11
321.307149159354
 21
385.3868739848784
 31
0.0
  0
LINE
  5
E1
330
1F
100
AcDbEntity
  8
NoLayerName_001
  6
Continuous
 62
     3
370
    50
100
AcDbLine
 10
325.2071491593541
 20
206.0024668000479
 30
0.0
 11
325.2071491593541
 21
241.0024668000479
 31
0.0
  0
ARC
  5
E2
330
1F
100
AcDbEntity
  8
NoLayerName_001
  6
Continuous
 62
     3
370
    50
100
AcDbCircle
 10
324.2071491593541
 20
206.0024668000479
 30
0.0
 40
1.0
100
AcDbArc
 50
270.0
 51
0.0
  0
LINE
  5
E3
330
1F
100
AcDbEntity
  8
NoLayerName_001
  6
Continuous
 62
   110
370
    50
100
AcDbLine
 10
233.9571491593541
 20
241.0024668000479
 30
0.0
 11
325.2071491593541
 21
241.0024668000479
 31
0.0
  0
LINE
  5
E4
330
1F
100
AcDbEntity
  8
NoLayerName_001
  6
Continuous
 62
     3
370
    50
100
AcDbLine
 10
142.7071491593541
 20
206.0024668000479
 30
0.0
 11
142.7071491593541
 21
241.0024668000479
 31
0.0
  0
ARC
  5
E5
330
1F
100
AcDbEntity
  8
NoLayerName_001
  6
Continuous
 62
     3
370
    50
100
AcDbCircle
 10
143.7071491593541
 20
206.0024668000479
 30
0.0
 40
1.0
100
AcDbArc
 50
180.0
 51
270.0
  0
LINE
  5
E6
330
1F
100
AcDbEntity
  8
NoLayerName_001
  6
Continuous
 62
   110
370
    50
100
AcDbLine
 10
233.9571491593541
 20
241.0024668000479
 30
0.0
 11
142.7071491593541
 21
241.0024668000479
 31
0.0
  0
ARC
  5
E7
330
1F
100
AcDbEntity
  8
NoLayerName_001
  6
Continuous
 62
     3
370
    50
100
AcDbCircle
 10
322.2071491593541
 20
427.5192009715791
 30
0.0
 40
3.0
100
AcDbArc
 50
0.0
 51
90.0
  0
ARC
  5
E8
330
1F
100
AcDbEntity
  8
NoLayerName_001
  6
Continuous
 62
     3
370
    50
100
AcDbCircle
 10
322.2071491593541
 20
316.5192009715791
 30
0.0
 40
3.0
100
AcDbArc
 50
270.0
 51
0.0
  0
LINE
  5
E9
330
1F
100
AcDbEntity
  8
NoLayerName_001
  6
Continuous
 62
     3
370
    50
100
AcDbLine
 10
233.9571491593541
 20
317.4192009715791
 30
0.0
 11
256.157149159354
 21
317.4192009715791
 31
0.0
  0
LINE
  5
EA
330
1F
100
AcDbEntity
  8
NoLayerName_001
  6
Continuous
 62
   110
370
    50
100
AcDbLine
 10
256.1571491593541
 20
316.7192009715791
 30
0.0
 11
259.2571491593541
 21
316.7192009715791
 31
0.0
  0
LINE
  5
EB
330
1F
100
AcDbEntity
  8
NoLayerName_001
  6
Continuous
 62
     3
370
    50
100
AcDbLine
 10
211.757149159354
 20
317.4192009715787
 30
0.0
 11
233.957149159354
 21
317.4192009715787
 31
0.0
  0
LINE
  5
EC
330
1F
100
AcDbEntity
  8
NoLayerName_001
  6
Continuous
 62
   110
370
    50
100
AcDbLine
 10
211.757149159354
 20
316.7192009715791
 30
0.0
 11
208.657149159354
 21
316.7192009715791
 31
0.0
  0
LINE
  5
ED
330
1F
100
AcDbEntity
  8
NoLayerName_001
  6
Continuous
 62
     3
370
    50
100
AcDbLine
 10
211.757149159354
 20
426.6192009715791
 30
0.0
 11
233.957149159354
 21
426.6192009715791
 31
0.0
  0
LINE
  5
EE
330
1F
100
AcDbEntity
  8
NoLayerName_001
  6
Continuous
 62
   110
370
    50
100
AcDbLine
 10
211.757149159354
 20
427.3192009715791
 30
0.0
 11
208.657149159354
 21
427.3192009715791
 31
0.0
  0
LINE
  5
EF
330
1F
100
AcDbEntity
  8
NoLayerName_001
  6
Continuous
 62
     3
370
    50
100
AcDbLine
 10
233.9571491593541
 20
426.6192009715795
 30
0.0
 11
256.157149159354
 21
426.6192009715795
 31
0.0
  0
LINE
  5
F0
330
1F
100
AcDbEntity
  8
NoLayerName_001
  6
Continuous
 62
   110
370
    50
100
AcDbLine
 10
256.1571491593541
 20
427.3192009715791
 30
0.0
 11
259.2571491593541
 21
427.3192009715791
 31
0.0
  0
ARC
  5
F1
330
1F
100
AcDbEntity
  8
NoLayerName_001
  6
DOTSX
 62
    21
370
    25
100
AcDbCircle
 10
228.0630543223972
 20
208.5544614387508
 30
0.0
 40
0.2
100
AcDbArc
 50
246.0155119943445
 51
315.0
  0
ARC
  5
F2
330
1F
100
AcDbEntity
  8
NoLayerName_001
  6
DOTSX
 62
    21
370
    25
100
AcDbCircle
 10
239.8512439963113
 20
208.5544614387509
 30
0.0
 40
0.2
100
AcDbArc
 50
225.0
 51
293.9844880056564
  0
ARC
  5
F3
330
1F
100
AcDbEntity
  8
NoLayerName_001
  6
DOTSX
 62
    21
370
    25
100
AcDbCircle
 10
288.8512439963113
 20
208.5544614387509
 30
0.0
 40
0.2
100
AcDbArc
 50
225.0
 51
293.9844880056564
  0
LINE
  5
F4
330
1F
100
AcDbEntity
  8
NoLayerName_001
  6
Continuous
 62
     3
370
    50
100
AcDbLine
 10
326.1071491593542
 20
391.0192009715791
 30
0.0
 11
326.1071491593542
 21
397.0192009715791
 31
0.0
  0
LINE
  5
F5
330
1F
100
AcDbEntity
  8
NoLayerName_001
  6
Continuous
 62
     3
370
    50
100
AcDbLine
 10
326.1071491593542
 20
397.0192009715791
 30
0.0
 11
325.1071491593542
 21
397.0192009715791
 31
0.0
  0
LINE
  5
F6
330
1F
100
AcDbEntity
  8
NoLayerName_001
  6
Continuous
 62
     3
370
    50
100
AcDbLine
 10
326.1071491593542
 20
391.0192009715791
 30
0.0
 11
325.1071491593542
 21
391.0192009715791
 31
0.0
  0
LINE
  5
F7
330
1F
100
AcDbEntity
  8
NoLayerName_001
  6
Continuous
 62
     3
370
    50
100
AcDbLine
 10
279.9571491593541
 20
312.9192009715791
 30
0.0
 11
279.9571491593541
 21
313.5192009715792
 31
0.0
  0
LINE
  5
F8
330
1F
100
AcDbEntity
  8
NoLayerName_001
  6
Continuous
 62
     3
370
    50
100
AcDbLine
 10
285.9571491593541
 20
312.9192009715791
 30
0.0
 11
285.9571491593541
 21
313.5192009715792
 31
0.0
  0
LINE
  5
F9
330
1F
100
AcDbEntity
  8
NoLayerName_001
  6
Continuous
 62
     3
370
    50
100
AcDbLine
 10
285.9571491593541
 20
312.9192009715791
 30
0.0
 11
279.9571491593541
 21
312.9192009715791
 31
0.0
  0
LINE
  5
FA
330
1F
100
AcDbEntity
  8
NoLayerName_001
  6
Continuous
 62
     3
370
    50
100
AcDbLine
 10
230.9571491593541
 20
312.9192009715791
 30
0.0
 11
230.9571491593541
 21
313.5192009715792
 31
0.0
  0
LINE
  5
FB
330
1F
100
AcDbEntity
  8
NoLayerName_001
  6
Continuous
 62
     3
370
    50
100
AcDbLine
 10
236.9571491593541
 20
312.9192009715791
 30
0.0
 11
230.9571491593541
 21
312.9192009715791
 31
0.0
  0
LINE
  5
FC
330
1F
100
AcDbEntity
  8
NoLayerName_001
  6
Continuous
 62
     3
370
    50
100
AcDbLine
 10
236.9571491593541
 20
312.9192009715791
 30
0.0
 11
236.9571491593541
 21
313.5192009715792
 31
0.0
  0
LINE
  5
FD
330
1F
100
AcDbEntity
  8
NoLayerName_001
  6
Continuous
 62
     3
370
    50
100
AcDbLine
 10
181.9571491593541
 20
312.9192009715788
 30
0.0
 11
181.9571491593541
 21
313.5192009715788
 31
0.0
  0
LINE
  5
FE
330
1F
100
AcDbEntity
  8
NoLayerName_001
  6
Continuous
 62
     3
370
    50
100
AcDbLine
 10
187.9571491593541
 20
312.9192009715788
 30
0.0
 11
181.9571491593541
 21
312.9192009715788
 31
0.0
  0
LINE
  5
FF
330
1F
100
AcDbEntity
  8
NoLayerName_001
  6
Continuous
 62
     3
370
    50
100
AcDbLine
 10
187.9571491593541
 20
312.9192009715788
 30
0.0
 11
187.9571491593541
 21
313.5192009715788
 31
0.0
  0
LINE
  5
100
330
1F
100
AcDbEntity
  8
NoLayerName_001
  6
Continuous
 62
     3
370
    50
100
AcDbLine
 10
187.9571491593541
 20
431.1192009715795
 30
0.0
 11
187.9571491593541
 21
430.5192009715795
 31
0.0
  0
LINE
  5
101
330
1F
100
AcDbEntity
  8
NoLayerName_001
  6
Continuous
 62
     3
370
    50
100
AcDbLine
 10
187.9571491593541
 20
431.1192009715795
 30
0.0
 11
181.9571491593541
 21
431.1192009715795
 31
0.0
  0
LINE
  5
102
330
1F
100
AcDbEntity
  8
NoLayerName_001
  6
Continuous
 62
     3
370
    50
100
AcDbLine
 10
181.9571491593541
 20
431.1192009715795
 30
0.0
 11
181.9571491593541
 21
430.5192009715795
 31
0.0
  0
LINE
  5
103
330
1F
100
AcDbEntity
  8
NoLayerName_001
  6
Continuous
 62
     3
370
    50
100
AcDbLine
 10
236.9571491593541
 20
431.119200971579
 30
0.0
 11
230.9571491593541
 21
431.119200971579
 31
0.0
  0
LINE
  5
104
330
1F
100
AcDbEntity
  8
NoLayerName_001
  6
Continuous
 62
     3
370
    50
100
AcDbLine
 10
236.9571491593541
 20
431.119200971579
 30
0.0
 11
236.9571491593541
 21
430.519200971579
 31
0.0
  0
LINE
  5
105
330
1F
100
AcDbEntity
  8
NoLayerName_001
  6
Continuous
 62
     3
370
    50
100
AcDbLine
 10
230.9571491593541
 20
431.119200971579
 30
0.0
 11
230.9571491593541
 21
430.519200971579
 31
0.0
  0
LINE
  5
106
330
1F
100
AcDbEntity
  8
NoLayerName_001
  6
Continuous
 62
     3
370
    50
100
AcDbLine
 10
279.9571491593541
 20
431.119200971579
 30
0.0
 11
279.9571491593541
 21
430.519200971579
 31
0.0
  0
LINE
  5
107
330
1F
100
AcDbEntity
  8
NoLayerName_001
  6
Continuous
 62
     3
370
    50
100
AcDbLine
 10
285.9571491593541
 20
431.119200971579
 30
0.0
 11
279.9571491593541
 21
431.119200971579
 31
0.0
  0
LINE
  5
108
330
1F
100
AcDbEntity
  8
NoLayerName_001
  6
Continuous
 62
     3
370
    50
100
AcDbLine
 10
285.9571491593541
 20
431.119200971579
 30
0.0
 11
285.9571491593541
 21
430.519200971579
 31
0.0
  0
ARC
  5
109
330
1F
100
AcDbEntity
  8
NoLayerName_001
  6
Continuous
 62
     3
370
    50
100
AcDbCircle
 10
309.9571491593541
 20
424.5192009715791
 30
0.0
 40
5.0
100
AcDbArc
 50
270.0
 51
20.20954537375241
  0
ARC
  5
10A
330
1F
100
AcDbEntity
  8
NoLayerName_001
  6
Continuous
 62
     3
370
    50
100
AcDbCircle
 10
309.9571491593541
 20
424.5192009715791
 30
0.0
 40
5.0
100
AcDbArc
 50
159.7904546262475
 51
270.0
  0
ARC
  5
10B
330
1F
100
AcDbEntity
  8
NoLayerName_001
  6
Continuous
 62
     3
370
    50
100
AcDbCircle
 10
304.7957539991285
 20
426.4192009715791
 30
0.0
 40
0.5
100
AcDbArc
 50
339.7904546262475
 51
89.99999999999999
  0
ARC
  5
10C
330
1F
100
AcDbEntity
  8
NoLayerName_001
  6
Continuous
 62
     3
370
    50
100
AcDbCircle
 10
297.9571491593541
 20
432.6192009715791
 30
0.0
 40
6.0
100
AcDbArc
 50
269.9999999999999
 51
288.1948723387656
  0
ARC
  5
10D
330
1F
100
AcDbEntity
  8
NoLayerName_001
  6
Continuous
 62
     3
370
    50
100
AcDbCircle
 10
315.1185443195796
 20
426.4192009715791
 30
0.0
 40
0.5
100
AcDbArc
 50
90.0
 51
200.2095453737524
  0
ARC
  5
10E
330
1F
100
AcDbEntity
  8
NoLayerName_001
  6
Continuous
 62
     3
370
    50
100
AcDbCircle
 10
326.2071491593541
 20
421.5192009715791
 30
0.0
 40
1.0
100
AcDbArc
 50
0.0000000000000127
 51
90.00000000000001
  0
ARC
  5
10F
330
1F
100
AcDbEntity
  8
NoLayerName_001
  6
Continuous
 62
     3
370
    50
100
AcDbCircle
 10
326.2071491593541
 20
421.5192009715791
 30
0.0
 40
1.0
100
AcDbArc
 50
270.0
 51
0.0
  0
LINE
  5
110
330
1F
100
AcDbEntity
  8
NoLayerName_001
  6
Continuous
 62
     3
370
    50
100
AcDbLine
 10
326.2071491593541
 20
422.5192009715791
 30
0.0
 11
325.2071491593541
 21
422.5192009715791
 31
0.0
  0
LINE
  5
111
330
1F
100
AcDbEntity
  8
NoLayerName_001
  6
Continuous
 62
     3
370
    50
100
AcDbLine
 10
326.2071491593541
 20
420.5192009715791
 30
0.0
 11
325.2071491593541
 21
420.5192009715791
 31
0.0
  0
ARC
  5
112
330
1F
100
AcDbEntity
  8
NoLayerName_001
  6
Continuous
 62
     3
370
    50
100
AcDbCircle
 10
326.2071491593541
 20
322.5192009715791
 30
0.0
 40
1.0
100
AcDbArc
 50
0.0
 51
90.0
  0
LINE
  5
113
330
1F
100
AcDbEntity
  8
NoLayerName_001
  6
Continuous
 62
     3
370
    50
100
AcDbLine
 10
326.2071491593541
 20
323.5192009715791
 30
0.0
 11
325.2071491593541
 21
323.5192009715791
 31
0.0
  0
ARC
  5
114
330
1F
100
AcDbEntity
  8
NoLayerName_001
  6
Continuous
 62
     3
370
    50
100
AcDbCircle
 10
326.2071491593541
 20
322.5192009715791
 30
0.0
 40
1.0
100
AcDbArc
 50
270.0
 51
360.0
  0
LINE
  5
115
330
1F
100
AcDbEntity
  8
NoLayerName_001
  6
Continuous
 62
     3
370
    50
100
AcDbLine
 10
326.2071491593541
 20
321.5192009715791
 30
0.0
 11
325.2071491593541
 21
321.5192009715791
 31
0.0
  0
ARC
  5
116
330
1F
100
AcDbEntity
  8
NoLayerName_001
  6
Continuous
 62
     3
370
    50
100
AcDbCircle
 10
315.1185443195796
 20
317.6192009715791
 30
0.0
 40
0.5
100
AcDbArc
 50
159.7904546262475
 51
269.9999999999999
  0
ARC
  5
117
330
1F
100
AcDbEntity
  8
NoLayerName_001
  6
Continuous
 62
     3
370
    50
100
AcDbCircle
 10
309.9571491593541
 20
319.5192009715791
 30
0.0
 40
5.0
100
AcDbArc
 50
339.7904546262475
 51
89.99999999999997
  0
ARC
  5
118
330
1F
100
AcDbEntity
  8
NoLayerName_001
  6
Continuous
 62
     3
370
    50
100
AcDbCircle
 10
309.9571491593541
 20
319.5192009715791
 30
0.0
 40
5.0
100
AcDbArc
 50
89.99999999999997
 51
200.2095453737524
  0
ARC
  5
119
330
1F
100
AcDbEntity
  8
NoLayerName_001
  6
Continuous
 62
     3
370
    50
100
AcDbCircle
 10
304.7957539991285
 20
317.6192009715791
 30
0.0
 40
0.5
100
AcDbArc
 50
270.0
 51
20.2095453737524
  0
ARC
  5
11A
330
1F
100
AcDbEntity
  8
NoLayerName_001
  6
Continuous
 62
     3
370
    50
100
AcDbCircle
 10
297.9571491593541
 20
311.4192009715791
 30
0.0
 40
6.0
100
AcDbArc
 50
71.80512766123441
 51
90.00000000000004
  0
ARC
  5
11B
330
1F
100
AcDbEntity
  8
NoLayerName_001
  6
Continuous
 62
     3
370
    50
100
AcDbCircle
 10
157.9571491593541
 20
319.5192009715791
 30
0.0
 40
5.0
100
AcDbArc
 50
90.00000000000001
 51
200.2095453737525
  0
ARC
  5
11C
330
1F
100
AcDbEntity
  8
NoLayerName_001
  6
Continuous
 62
     3
370
    50
100
AcDbCircle
 10
152.7957539991285
 20
317.6192009715791
 30
0.0
 40
0.5
100
AcDbArc
 50
270.0
 51
20.20954537375243
  0
ARC
  5
11D
330
1F
100
AcDbEntity
  8
NoLayerName_001
  6
Continuous
 62
     3
370
    50
100
AcDbCircle
 10
157.9571491593541
 20
319.5192009715791
 30
0.0
 40
5.0
100
AcDbArc
 50
339.7904546262476
 51
90.00000000000001
  0
ARC
  5
11E
330
1F
100
AcDbEntity
  8
NoLayerName_001
  6
Continuous
 62
     3
370
    50
100
AcDbCircle
 10
169.9571491593541
 20
311.4192009715791
 30
0.0
 40
6.0
100
AcDbArc
 50
89.99999999999996
 51
108.1948723387656
  0
ARC
  5
11F
330
1F
100
AcDbEntity
  8
NoLayerName_001
  6
Continuous
 62
     3
370
    50
100
AcDbCircle
 10
163.1185443195796
 20
317.6192009715791
 30
0.0
 40
0.5
100
AcDbArc
 50
159.7904546262476
 51
270.0
  0
ARC
  5
120
330
1F
100
AcDbEntity
  8
NoLayerName_001
  6
Continuous
 62
     3
370
    50
100
AcDbCircle
 10
157.9571491593541
 20
424.5192009715791
 30
0.0
 40
5.0
100
AcDbArc
 50
159.7904546262475
 51
270.0
  0
ARC
  5
121
330
1F
100
AcDbEntity
  8
NoLayerName_001
  6
Continuous
 62
     3
370
    50
100
AcDbCircle
 10
152.7957539991285
 20
426.4192009715791
 30
0.0
 40
0.5
100
AcDbArc
 50
339.7904546262475
 51
89.99999999999999
  0
ARC
  5
122
330
1F
100
AcDbEntity
  8
NoLayerName_001
  6
Continuous
 62
     3
370
    50
100
AcDbCircle
 10
157.9571491593541
 20
424.5192009715791
 30
0.0
 40
5.0
100
AcDbArc
 50
270.0
 51
20.20954537375245
  0
ARC
  5
123
330
1F
100
AcDbEntity
  8
NoLayerName_001
  6
Continuous
 62
     3
370
    50
100
AcDbCircle
 10
163.1185443195796
 20
426.4192009715791
 30
0.0
 40
0.5
100
AcDbArc
 50
90.0
 51
200.2095453737524
  0
ARC
  5
124
330
1F
100
AcDbEntity
  8
NoLayerName_001
  6
Continuous
 62
     3
370
    50
100
AcDbCircle
 10
141.7071491593541
 20
421.5192009715791
 30
0.0
 40
1.0
100
AcDbArc
 50
90.0
 51
180.0
  0
ARC
  5
125
330
1F
100
AcDbEntity
  8
NoLayerName_001
  6
Continuous
 62
     3
370
    50
100
AcDbCircle
 10
141.7071491593541
 20
421.5192009715791
 30
0.0
 40
1.0
100
AcDbArc
 50
180.0
 51
270.0
  0
LINE
  5
126
330
1F
100
AcDbEntity
  8
NoLayerName_001
  6
Continuous
 62
     3
370
    50
100
AcDbLine
 10
141.7071491593541
 20
422.5192009715791
 30
0.0
 11
142.7071491593541
 21
422.5192009715791
 31
0.0
  0
LINE
  5
127
330
1F
100
AcDbEntity
  8
NoLayerName_001
  6
Continuous
 62
     3
370
    50
100
AcDbLine
 10
141.7071491593541
 20
420.5192009715791
 30
0.0
 11
142.7071491593541
 21
420.5192009715791
 31
0.0
  0
LINE
  5
128
330
1F
100
AcDbEntity
  8
NoLayerName_001
  6
Continuous
 62
     3
370
    50
100
AcDbLine
 10
322.2071491593541
 20
430.5192009715791
 30
0.0
 11
145.7071491593541
 21
430.5192009715791
 31
0.0
  0
ARC
  5
129
330
1F
100
AcDbEntity
  8
NoLayerName_001
  6
Continuous
 62
     3
370
    50
100
AcDbCircle
 10
145.7071491593541
 20
427.5192009715791
 30
0.0
 40
3.0
100
AcDbArc
 50
90.0
 51
180.0
  0
ARC
  5
12A
330
1F
100
AcDbEntity
  8
NoLayerName_001
  6
Continuous
 62
     3
370
    50
100
AcDbCircle
 10
141.7071491593541
 20
322.5192009715791
 30
0.0
 40
1.0
100
AcDbArc
 50
180.0
 51
270.0
  0
ARC
  5
12B
330
1F
100
AcDbEntity
  8
NoLayerName_001
  6
Continuous
 62
     3
370
    50
100
AcDbCircle
 10
141.7071491593541
 20
322.5192009715791
 30
0.0
 40
1.0
100
AcDbArc
 50
90.0
 51
180.0
  0
LINE
  5
12C
330
1F
100
AcDbEntity
  8
NoLayerName_001
  6
Continuous
 62
     3
370
    50
100
AcDbLine
 10
141.7071491593541
 20
323.5192009715791
 30
0.0
 11
142.7071491593541
 21
323.5192009715791
 31
0.0
  0
LINE
  5
12D
330
1F
100
AcDbEntity
  8
NoLayerName_001
  6
Continuous
 62
     3
370
    50
100
AcDbLine
 10
141.7071491593541
 20
321.5192009715791
 30
0.0
 11
142.7071491593541
 21
321.5192009715791
 31
0.0
  0
LINE
  5
12E
330
1F
100
AcDbEntity
  8
NoLayerName_001
  6
Continuous
 62
     3
370
    50
100
AcDbLine
 10
145.7071491593541
 20
313.5192009715788
 30
0.0
 11
233.9571491593541
 21
313.5192009715788
 31
0.0
  0
ARC
  5
12F
330
1F
100
AcDbEntity
  8
NoLayerName_001
  6
Continuous
 62
     3
370
    50
100
AcDbCircle
 10
145.7071491593541
 20
316.5192009715788
 30
0.0
 40
3.0
100
AcDbArc
 50
180.0
 51
270.0
  0
LINE
  5
130
330
1F
100
AcDbEntity
  8
NoLayerName_001
  6
Continuous
 62
     3
370
    50
100
AcDbLine
 10
142.7071491593541
 20
427.5192009715791
 30
0.0
 11
142.7071491593541
 21
316.5192009715788
 31
0.0
  0
LINE
  5
131
330
1F
100
AcDbEntity
  8
NoLayerName_001
  6
Continuous
 62
     3
370
    50
100
AcDbLine
 10
325.2071491593541
 20
372.5192009715791
 30
0.0
 11
325.5071491593541
 21
372.5192009715791
 31
0.0
  0
LINE
  5
132
330
1F
100
AcDbEntity
  8
NoLayerName_001
  6
Continuous
 62
     3
370
    50
100
AcDbLine
 10
325.2071491593541
 20
371.5192009715791
 30
0.0
 11
325.5071491593541
 21
371.5192009715791
 31
0.0
  0
LINE
  5
133
330
1F
100
AcDbEntity
  8
NoLayerName_001
  6
Continuous
 62
     3
370
    50
100
AcDbLine
 10
325.507149159354
 20
371.5192009715791
 30
0.0
 11
325.507149159354
 21
372.5192009715791
 31
0.0
  0
LINE
  5
134
330
1F
100
AcDbEntity
  8
NoLayerName_001
  6
Continuous
 62
     3
370
    50
100
AcDbLine
 10
142.7071491593541
 20
372.5192009715791
 30
0.0
 11
142.407149159354
 21
372.5192009715791
 31
0.0
  0
LINE
  5
135
330
1F
100
AcDbEntity
  8
NoLayerName_001
  6
Continuous
 62
     3
370
    50
100
AcDbLine
 10
142.4071491593541
 20
371.5192009715791
 30
0.0
 11
142.4071491593541
 21
372.5192009715791
 31
0.0
  0
LINE
  5
136
330
1F
100
AcDbEntity
  8
NoLayerName_001
  6
Continuous
 62
     3
370
    50
100
AcDbLine
 10
142.7071491593541
 20
371.5192009715791
 30
0.0
 11
142.407149159354
 21
371.5192009715791
 31
0.0
  0
ARC
  5
137
330
1F
100
AcDbEntity
  8
NoLayerName_001
  6
Continuous
 62
     3
370
    50
100
AcDbCircle
 10
169.9571491593541
 20
432.6192009715791
 30
0.0
 40
6.0
100
AcDbArc
 50
251.8051276612344
 51
270.0000000000001
  0
LINE
  5
138
330
1F
100
AcDbEntity
  8
NoLayerName_001
  6
Continuous
 62
     3
370
    50
100
AcDbLine
 10
141.7071491593541
 20
237.0024668000479
 30
0.0
 11
142.7071491593541
 21
237.0024668000479
 31
0.0
  0
LINE
  5
139
330
1F
100
AcDbEntity
  8
NoLayerName_001
  6
Continuous
 62
     3
370
    50
100
AcDbLine
 10
141.7071491593541
 20
212.0024668000479
 30
0.0
 11
142.7071491593541
 21
212.0024668000479
 31
0.0
  0
LINE
  5
13A
330
1F
100
AcDbEntity
  8
NoLayerName_001
  6
Continuous
 62
     3
370
    50
100
AcDbLine
 10
140.7071491593541
 20
213.0024668000479
 30
0.0
 11
140.7071491593541
 21
236.0024668000479
 31
0.0
  0
ARC
  5
13B
330
1F
100
AcDbEntity
  8
NoLayerName_001
  6
Continuous
 62
     3
370
    50
100
AcDbCircle
 10
141.7071491593541
 20
236.0024668000479
 30
0.0
 40
1.0
100
AcDbArc
 50
90.0
 51
180.0
  0
ARC
  5
13C
330
1F
100
AcDbEntity
  8
NoLayerName_001
  6
Continuous
 62
     3
370
    50
100
AcDbCircle
 10
141.7071491593541
 20
213.0024668000479
 30
0.0
 40
1.0
100
AcDbArc
 50
180.0
 51
270.0
  0
LINE
  5
13D
330
1F
100
AcDbEntity
  8
NoLayerName_001
  6
Continuous
 62
     3
370
    50
100
AcDbLine
 10
326.2071491593541
 20
237.0024668000479
 30
0.0
 11
325.2071491593541
 21
237.0024668000479
 31
0.0
  0
LINE
  5
13E
330
1F
100
AcDbEntity
  8
NoLayerName_001
  6
Continuous
 62
     3
370
    50
100
AcDbLine
 10
326.2071491593541
 20
212.0024668000479
 30
0.0
 11
325.2071491593541
 21
212.0024668000479
 31
0.0
  0
LINE
  5
13F
330
1F
100
AcDbEntity
  8
NoLayerName_001
  6
Continuous
 62
     3
370
    50
100
AcDbLine
 10
327.2071491593541
 20
213.0024668000479
 30
0.0
 11
327.2071491593541
 21
236.0024668000479
 31
0.0
  0
ARC
  5
140
330
1F
100
AcDbEntity
  8
NoLayerName_001
  6
Continuous
 62
     3
370
    50
100
AcDbCircle
 10
326.2071491593541
 20
236.0024668000479
 30
0.0
 40
1.0
100
AcDbArc
 50
0.0000000000000127
 51
90.00000000000001
  0
ARC
  5
141
330
1F
100
AcDbEntity
  8
NoLayerName_001
  6
Continuous
 62
     3
370
    50
100
AcDbCircle
 10
326.2071491593541
 20
213.0024668000479
 30
0.0
 40
1.0
100
AcDbArc
 50
270.0
 51
0.0
  0
ARC
  5
142
330
1F
100
AcDbEntity
  8
NoLayerName_001
  6
Continuous
 62
     3
370
    50
100
AcDbCircle
 10
147.307149159354
 20
318.1192009715791
 30
0.0
 40
1.0
100
AcDbArc
 50
180.0
 51
270.0
  0
ARC
  5
143
330
1F
100
AcDbEntity
  8
NoLayerName_001
  6
Continuous
 62
     3
370
    50
100
AcDbCircle
 10
140.607149159354
 20
335.0192009715791
 30
0.0
 40
6.0
100
AcDbArc
 50
341.8051276612337
 51
0.0
  0
LINE
  5
144
330
1F
100
AcDbEntity
  8
NoLayerName_001
  6
Continuous
 62
     3
370
    50
100
AcDbLine
 10
146.307149159354
 20
318.1192009715791
 30
0.0
 11
146.307149159354
 21
333.1457015720595
 31
0.0
  0
ARC
  5
145
330
1F
100
AcDbEntity
  8
NoLayerName_001
  6
Continuous
 62
     3
370
    50
100
AcDbCircle
 10
140.607149159354
 20
409.0192009715791
 30
0.0
 40
6.0
100
AcDbArc
 50
0.0
 51
18.19487233876629
  0
LINE
  5
146
330
1F
100
AcDbEntity
  8
NoLayerName_001
  6
Continuous
 62
     3
370
    50
100
AcDbLine
 10
146.607149159354
 20
409.0192009715791
 30
0.0
 11
146.607149159354
 21
335.0192009715791
 31
0.0
  0
LINE
  5
147
330
1F
100
AcDbEntity
  8
NoLayerName_001
  6
Continuous
 62
     3
370
    50
100
AcDbLine
 10
147.307149159354
 20
426.9192009715791
 30
0.0
 11
152.7957539991284
 21
426.9192009715791
 31
0.0
  0
ARC
  5
148
330
1F
100
AcDbEntity
  8
NoLayerName_001
  6
Continuous
 62
     3
370
    50
100
AcDbCircle
 10
147.307149159354
 20
425.9192009715791
 30
0.0
 40
1.0
100
AcDbArc
 50
90.0
 51
180.0
  0
LINE
  5
149
330
1F
100
AcDbEntity
  8
NoLayerName_001
  6
Continuous
 62
     3
370
    50
100
AcDbLine
 10
146.307149159354
 20
425.9192009715791
 30
0.0
 11
146.307149159354
 21
410.8927003710987
 31
0.0
  0
ARC
  5
14A
330
1F
100
AcDbEntity
  8
NoLayerName_001
  6
Continuous
 62
     3
370
    50
100
AcDbCircle
 10
320.6071491593542
 20
425.9192009715791
 30
0.0
 40
1.0
100
AcDbArc
 50
360.0
 51
89.99999999999999
  0
LINE
  5
14B
330
1F
100
AcDbEntity
  8
NoLayerName_001
  6
Continuous
 62
     3
370
    50
100
AcDbLine
 10
321.6071491593542
 20
425.9192009715791
 30
0.0
 11
321.6071491593542
 21
410.8927003710987
 31
0.0
  0
ARC
  5
14C
330
1F
100
AcDbEntity
  8
NoLayerName_001
  6
Continuous
 62
     3
370
    50
100
AcDbCircle
 10
327.307149159354
 20
409.0192009715791
 30
0.0
 40
6.0
100
AcDbArc
 50
161.8051276612337
 51
180.0
  0
ARC
  5
14D
330
1F
100
AcDbEntity
  8
NoLayerName_001
  6
Continuous
 62
     3
370
    50
100
AcDbCircle
 10
327.307149159354
 20
335.0192009715791
 30
0.0
 40
6.0
100
AcDbArc
 50
180.0
 51
198.1948723387663
  0
LINE
  5
14E
330
1F
100
AcDbEntity
  8
NoLayerName_001
  6
Continuous
 62
     3
370
    50
100
AcDbLine
 10
321.307149159354
 20
409.0192009715791
 30
0.0
 11
321.307149159354
 21
335.0192009715791
 31
0.0
  0
ARC
  5
14F
330
1F
100
AcDbEntity
  8
NoLayerName_001
  6
Continuous
 62
     3
370
    50
100
AcDbCircle
 10
320.6071491593542
 20
318.1192009715791
 30
0.0
 40
1.0
100
AcDbArc
 50
270.0
 51
360.0
  0
LINE
  5
150
330
1F
100
AcDbEntity
  8
NoLayerName_001
  6
Continuous
 62
     3
370
    50
100
AcDbLine
 10
321.6071491593542
 20
318.1192009715791
 30
0.0
 11
321.6071491593542
 21
333.1457015720595
 31
0.0
  0
LINE
  5
151
330
1F
100
AcDbEntity
  8
NoLayerName_001
  6
Continuous
 62
     3
370
    50
100
AcDbLine
 10
321.6071491593542
 20
318.1192009715791
 30
0.0
 11
321.6071491593542
 21
333.1457015720595
 31
0.0
  0
LINE
  5
152
330
1F
100
AcDbEntity
  8
NoLayerName_001
  6
Continuous
 62
     5
370
    50
100
AcDbLine
 10
317.5071491593538
 20
340.9868739848787
 30
0.0
 11
321.307149159354
 21
340.9868739848787
 31
0.0
  0
LINE
  5
153
330
1F
100
AcDbEntity
  8
NoLayerName_001
  6
Continuous
 62
     5
370
    50
100
AcDbLine
 10
317.5071491593538
 20
358.6515279582798
 30
0.0
 11
317.5071491593538
 21
340.9868739848787
 31
0.0
  0
LINE
  5
154
330
1F
100
AcDbEntity
  8
NoLayerName_001
  6
Continuous
 62
     5
370
    50
100
AcDbLine
 10
317.5071491593538
 20
358.6515279582798
 30
0.0
 11
321.307149159354
 21
358.6515279582798
 31
0.0
  0
LINE
  5
155
330
1F
100
AcDbEntity
  8
NoLayerName_001
  6
Continuous
 62
     3
370
    50
100
AcDbLine
 10
326.1071491593542
 20
353.0192009715791
 30
0.0
 11
326.1071491593542
 21
347.0192009715791
 31
0.0
  0
LINE
  5
156
330
1F
100
AcDbEntity
  8
NoLayerName_001
  6
Continuous
 62
     3
370
    50
100
AcDbLine
 10
326.1071491593542
 20
347.0192009715791
 30
0.0
 11
325.1071491593542
 21
347.0192009715791
 31
0.0
  0
LINE
  5
157
330
1F
100
AcDbEntity
  8
NoLayerName_001
  6
Continuous
 62
     3
370
    50
100
AcDbLine
 10
326.1071491593542
 20
353.0192009715791
 30
0.0
 11
325.1071491593542
 21
353.0192009715791
 31
0.0
  0
LINE
  5
158
330
1F
100
AcDbEntity
  8
NoLayerName_001
  6
Continuous
 62
     5
370
    50
100
AcDbLine
 10
150.4071491593542
 20
403.0515279582795
 30
0.0
 11
146.607149159354
 21
403.0515279582795
 31
0.0
  0
LINE
  5
159
330
1F
100
AcDbEntity
  8
NoLayerName_001
  6
Continuous
 62
     5
370
    50
100
AcDbLine
 10
150.4071491593542
 20
385.3868739848784
 30
0.0
 11
150.4071491593542
 21
403.0515279582795
 31
0.0
  0
LINE
  5
15A
330
1F
100
AcDbEntity
  8
NoLayerName_001
  6
Continuous
 62
     5
370
    50
100
AcDbLine
 10
150.4071491593542
 20
385.3868739848784
 30
0.0
 11
146.607149159354
 21
385.3868739848784
 31
0.0
  0
LINE
  5
15B
330
1F
100
AcDbEntity
  8
NoLayerName_001
  6
Continuous
 62
     3
370
    50
100
AcDbLine
 10
141.8071491593541
 20
391.0192009715791
 30
0.0
 11
141.8071491593541
 21
397.0192009715791
 31
0.0
  0
LINE
  5
15C
330
1F
100
AcDbEntity
  8
NoLayerName_001
  6
Continuous
 62
     3
370
    50
100
AcDbLine
 10
141.8071491593541
 20
397.0192009715791
 30
0.0
 11
142.8071491593541
 21
397.0192009715791
 31
0.0
  0
LINE
  5
15D
330
1F
100
AcDbEntity
  8
NoLayerName_001
  6
Continuous
 62
     3
370
    50
100
AcDbLine
 10
141.8071491593541
 20
391.0192009715791
 30
0.0
 11
142.8071491593541
 21
391.0192009715791
 31
0.0
  0
LINE
  5
15E
330
1F
100
AcDbEntity
  8
NoLayerName_001
  6
Continuous
 62
     5
370
    50
100
AcDbLine
 10
150.4071491593542
 20
340.9868739848787
 30
0.0
 11
146.607149159354
 21
340.9868739848787
 31
0.0
  0
LINE
  5
15F
330
1F
100
AcDbEntity
  8
NoLayerName_001
  6
Continuous
 62
     5
370
    50
100
AcDbLine
 10
150.4071491593542
 20
358.6515279582798
 30
0.0
 11
150.4071491593542
 21
340.9868739848787
 31
0.0
  0
LINE
  5
160
330
1F
100
AcDbEntity
  8
NoLayerName_001
  6
Continuous
 62
     5
370
    50
100
AcDbLine
 10
150.4071491593542
 20
358.6515279582798
 30
0.0
 11
146.607149159354
 21
358.6515279582798
 31
0.0
  0
LINE
  5
161
330
1F
100
AcDbEntity
  8
NoLayerName_001
  6
Continuous
 62
     3
370
    50
100
AcDbLine
 10
141.8071491593541
 20
353.0192009715791
 30
0.0
 11
141.8071491593541
 21
347.0192009715791
 31
0.0
  0
LINE
  5
162
330
1F
100
AcDbEntity
  8
NoLayerName_001
  6
Continuous
 62
     3
370
    50
100
AcDbLine
 10
141.8071491593541
 20
347.0192009715791
 30
0.0
 11
142.8071491593541
 21
347.0192009715791
 31
0.0
  0
LINE
  5
163
330
1F
100
AcDbEntity
  8
NoLayerName_001
  6
Continuous
 62
     3
370
    50
100
AcDbLine
 10
141.8071491593541
 20
353.0192009715791
 30
0.0
 11
142.8071491593541
 21
353.0192009715791
 31
0.0
  0
LINE
  5
164
330
1F
100
AcDbEntity
  8
NoLayerName_001
  6
Continuous
 62
     3
370
    50
100
AcDbLine
 10
233.9571491593541
 20
426.6192009715795
 30
0.0
 11
256.2071491593541
 21
426.6192009715795
 31
0.0
  0
LINE
  5
165
330
1F
100
AcDbEntity
  8
NoLayerName_001
  6
Continuous
 62
     3
370
    50
100
AcDbLine
 10
259.2071491593541
 20
426.6192009715795
 30
0.0
 11
297.9571491593541
 21
426.6192009715795
 31
0.0
  0
LINE
  5
166
330
1F
100
AcDbEntity
  8
NoLayerName_001
  6
Continuous
 62
     3
370
    50
100
AcDbLine
 10
233.9571491593541
 20
317.4192009715791
 30
0.0
 11
256.2071491593541
 21
317.4192009715791
 31
0.0
  0
LINE
  5
167
330
1F
100
AcDbEntity
  8
NoLayerName_001
  6
Continuous
 62
     3
370
    50
100
AcDbLine
 10
259.2071491593541
 20
317.4192009715791
 30
0.0
 11
297.9571491593541
 21
317.4192009715791
 31
0.0
  0
ARC
  5
168
330
1F
100
AcDbEntity
  8
NoLayerName_001
  6
Continuous
 62
   110
370
    50
100
AcDbCircle
 10
209.4071491593541
 20
372.0192009715791
 30
0.0
 40
2.5
100
AcDbArc
 50
106.2602047083131
 51
180.0
  0
ARC
  5
169
330
1F
100
AcDbEntity
  8
NoLayerName_001
  6
Continuous
 62
   110
370
    50
100
AcDbCircle
 10
210.9071491593541
 20
372.0192009715791
 30
0.0
 40
2.5
100
AcDbArc
 50
0.0000000000000127
 51
71.33707511505854
  0
LINE
  5
16A
330
1F
100
AcDbEntity
  8
NoLayerName_001
  6
Continuous
 62
     3
370
    50
100
AcDbLine
 10
211.7071491593541
 20
426.6192009715795
 30
0.0
 11
211.7071491593541
 21
372.0192009715791
 31
0.0
  0
LINE
  5
16B
330
1F
100
AcDbEntity
  8
NoLayerName_001
  6
Continuous
 62
     3
370
    50
100
AcDbLine
 10
208.7071491593541
 20
426.6192009715795
 30
0.0
 11
208.7071491593541
 21
372.0192009715791
 31
0.0
  0
ARC
  5
16C
330
1F
100
AcDbEntity
  8
NoLayerName_001
  6
Continuous
 62
   110
370
    50
100
AcDbCircle
 10
209.4071491593541
 20
372.0192009715791
 30
0.0
 40
2.5
100
AcDbArc
 50
180.0
 51
253.7397952916869
  0
LINE
  5
16D
330
1F
100
AcDbEntity
  8
NoLayerName_001
  6
Continuous
 62
     3
370
    50
100
AcDbLine
 10
208.7071491593541
 20
317.4192009715787
 30
0.0
 11
208.7071491593541
 21
372.0192009715791
 31
0.0
  0
ARC
  5
16E
330
1F
100
AcDbEntity
  8
NoLayerName_001
  6
Continuous
 62
   110
370
    50
100
AcDbCircle
 10
210.9071491593541
 20
372.0192009715791
 30
0.0
 40
2.5
100
AcDbArc
 50
288.6629248849414
 51
360.0
  0
LINE
  5
16F
330
1F
100
AcDbEntity
  8
NoLayerName_001
  6
Continuous
 62
     3
370
    50
100
AcDbLine
 10
211.7071491593541
 20
317.4192009715787
 30
0.0
 11
211.7071491593541
 21
372.0192009715791
 31
0.0
  0
LINE
  5
170
330
1F
100
AcDbEntity
  8
NoLayerName_001
  6
Continuous
 62
     3
370
    50
100
AcDbLine
 10
208.7071491593541
 20
337.0192009715791
 30
0.0
 11
211.7071491593541
 21
337.0192009715791
 31
0.0
  0
LINE
  5
171
330
1F
100
AcDbEntity
  8
NoLayerName_001
  6
Continuous
 62
     3
370
    50
100
AcDbLine
 10
208.7071491593541
 20
407.0192009715791
 30
0.0
 11
211.7071491593541
 21
407.0192009715791
 31
0.0
  0
LINE
  5
172
330
1F
100
AcDbEntity
  8
NoLayerName_001
  6
Continuous
 62
     3
370
    50
100
AcDbLine
 10
233.9571491593541
 20
426.6192009715795
 30
0.0
 11
211.7071491593541
 21
426.6192009715795
 31
0.0
  0
LINE
  5
173
330
1F
100
AcDbEntity
  8
NoLayerName_001
  6
Continuous
 62
     3
370
    50
100
AcDbLine
 10
208.7071491593541
 20
426.6192009715795
 30
0.0
 11
169.9571491593541
 21
426.6192009715795
 31
0.0
  0
LINE
  5
174
330
1F
100
AcDbEntity
  8
NoLayerName_001
  6
Continuous
 62
     3
370
    50
100
AcDbLine
 10
233.9571491593541
 20
317.4192009715787
 30
0.0
 11
211.7071491593541
 21
317.4192009715787
 31
0.0
  0
LINE
  5
175
330
1F
100
AcDbEntity
  8
NoLayerName_001
  6
Continuous
 62
     3
370
    50
100
AcDbLine
 10
208.7071491593541
 20
317.4192009715787
 30
0.0
 11
169.9571491593541
 21
317.4192009715787
 31
0.0
  0
ARC
  5
176
330
1F
100
AcDbEntity
  8
NoLayerName_001
  6
Continuous
 62
   110
370
    50
100
AcDbCircle
 10
258.507149159354
 20
372.0192009715791
 30
0.0
 40
2.5
100
AcDbArc
 50
0.0
 51
90.0
  0
ARC
  5
177
330
1F
100
AcDbEntity
  8
NoLayerName_001
  6
Continuous
 62
   110
370
    50
100
AcDbCircle
 10
257.007149159354
 20
372.0192009715791
 30
0.0
 40
2.5
100
AcDbArc
 50
180.0
 51
270.0
  0
ARC
  5
178
330
1F
100
AcDbEntity
  8
NoLayerName_001
  6
Continuous
 62
   110
370
    50
100
AcDbCircle
 10
257.007149159354
 20
372.0192009715791
 30
0.0
 40
2.5
100
AcDbArc
 50
90.0
 51
180.0
  0
LINE
  5
179
330
1F
100
AcDbEntity
  8
NoLayerName_001
  6
Continuous
 62
   110
370
    50
100
AcDbLine
 10
257.007149159354
 20
374.5192009715791
 30
0.0
 11
258.507149159354
 21
374.5192009715791
 31
0.0
  0
LINE
  5
17A
330
1F
100
AcDbEntity
  8
NoLayerName_001
  6
Continuous
 62
   110
370
    50
100
AcDbLine
 10
258.507149159354
 20
369.5192009715791
 30
0.0
 11
257.007149159354
 21
369.5192009715791
 31
0.0
  0
ARC
  5
17B
330
1F
100
AcDbEntity
  8
NoLayerName_001
  6
Continuous
 62
   110
370
    50
100
AcDbCircle
 10
258.507149159354
 20
372.0192009715791
 30
0.0
 40
2.5
100
AcDbArc
 50
270.0
 51
0.0
  0
CIRCLE
  5
17C
330
1F
100
AcDbEntity
  8
NoLayerName_001
  6
Continuous
 62
     3
370
    50
100
AcDbCircle
 10
184.9571491593541
 20
221.8024668000479
 30
0.0
 40
15.6
  0
LINE
  5
17D
330
1F
100
AcDbEntity
  8
NoLayerName_001
  6
Continuous
 62
     3
370
    50
100
AcDbLine
 10
179.2044756786343
 20
208.4130400825137
 30
0.0
 11
179.8122674416427
 21
209.0208318455221
 31
0.0
  0
LINE
  5
17E
330
1F
100
AcDbEntity
  8
NoLayerName_001
  6
Continuous
 62
     3
370
    50
100
AcDbLine
 10
197.8179259016223
 20
216.5784432945946
 30
0.0
 11
198.3465758768887
 21
216.0497933193283
 31
0.0
  0
LINE
  5
17F
330
1F
100
AcDbEntity
  8
NoLayerName_001
  6
Continuous
 62
     3
370
    50
100
AcDbLine
 10
190.7098226400738
 20
208.4130400825136
 30
0.0
 11
190.1020308770654
 21
209.020831845522
 31
0.0
  0
LINE
  5
180
330
1F
100
AcDbEntity
  8
NoLayerName_001
  6
Continuous
 62
     3
370
    50
100
AcDbLine
 10
190.1811726648079
 20
234.6632435423161
 30
0.0
 11
190.7098226400741
 21
235.1918935175823
 31
0.0
  0
LINE
  5
181
330
1F
100
AcDbEntity
  8
NoLayerName_001
  6
Continuous
 62
     3
370
    50
100
AcDbLine
 10
197.8179259016223
 20
227.0264903055013
 30
0.0
 11
198.3465758768885
 21
227.5551402807675
 31
0.0
  0
LINE
  5
182
330
1F
100
AcDbEntity
  8
NoLayerName_001
  6
Continuous
 62
     3
370
    50
100
AcDbLine
 10
179.7331256539002
 20
234.6632435423161
 30
0.0
 11
179.2044756786343
 21
235.1918935175821
 31
0.0
  0
LINE
  5
183
330
1F
100
AcDbEntity
  8
NoLayerName_001
  6
Continuous
 62
     3
370
    50
100
AcDbLine
 10
179.7571491593542
 20
213.8024668000479
 30
0.0
 11
190.1571491593542
 21
213.8024668000479
 31
0.0
  0
LINE
  5
184
330
1F
100
AcDbEntity
  8
NoLayerName_001
  6
Continuous
 62
     3
370
    50
100
AcDbLine
 10
179.7571491593542
 20
220.8024668000479
 30
0.0
 11
190.1571491593542
 21
220.8024668000479
 31
0.0
  0
LINE
  5
185
330
1F
100
AcDbEntity
  8
NoLayerName_001
  6
Continuous
 62
     3
370
    50
100
AcDbLine
 10
179.7571491593542
 20
220.8024668000479
 30
0.0
 11
179.7571491593542
 21
213.8024668000479
 31
0.0
  0
LINE
  5
186
330
1F
100
AcDbEntity
  8
NoLayerName_001
  6
Continuous
 62
     3
370
    50
100
AcDbLine
 10
181.7571491593542
 20
218.4024668000479
 30
0.0
 11
181.7571491593542
 21
216.2024668000479
 31
0.0
  0
LINE
  5
187
330
1F
100
AcDbEntity
  8
NoLayerName_001
  6
Continuous
 62
     3
370
    50
100
AcDbLine
 10
188.1571491593539
 20
218.4024668000479
 30
0.0
 11
188.1571491593539
 21
216.2024668000479
 31
0.0
  0
LINE
  5
188
330
1F
100
AcDbEntity
  8
NoLayerName_001
  6
Continuous
 62
     3
370
    50
100
AcDbLine
 10
181.9571491593541
 20
224.8024668000479
 30
0.0
 11
187.9571491593541
 21
224.8024668000479
 31
0.0
  0
LINE
  5
189
330
1F
100
AcDbEntity
  8
NoLayerName_001
  6
Continuous
 62
     3
370
    50
100
AcDbLine
 10
190.1571491593539
 20
220.8024668000479
 30
0.0
 11
190.1571491593539
 21
213.8024668000479
 31
0.0
  0
LINE
  5
18A
330
1F
100
AcDbEntity
  8
NoLayerName_001
  6
Continuous
 62
     3
370
    50
100
AcDbLine
 10
188.1571491593539
 20
218.4024668000479
 30
0.0
 11
181.7571491593542
 21
218.4024668000479
 31
0.0
  0
LINE
  5
18B
330
1F
100
AcDbEntity
  8
NoLayerName_001
  6
Continuous
 62
     3
370
    50
100
AcDbLine
 10
188.1571491593539
 20
216.2024668000479
 30
0.0
 11
181.7571491593542
 21
216.2024668000479
 31
0.0
  0
ARC
  5
18C
330
1F
100
AcDbEntity
  8
NoLayerName_001
  6
Continuous
 62
     3
370
    50
100
AcDbCircle
 10
190.8512439963113
 20
235.0504721613449
 30
0.0
 40
0.2
100
AcDbArc
 50
66.01551199434357
 51
135.0
  0
ARC
  5
18D
330
1F
100
AcDbEntity
  8
NoLayerName_001
  6
Continuous
 62
     3
370
    50
100
AcDbCircle
 10
184.9571491593541
 20
221.8024668000479
 30
0.0
 40
14.7
100
AcDbArc
 50
23.98448800565551
 51
66.01551199434357
  0
ARC
  5
18E
330
1F
100
AcDbEntity
  8
NoLayerName_001
  6
Continuous
 62
     3
370
    50
100
AcDbCircle
 10
198.2051545206512
 20
227.6965616370048
 30
0.0
 40
0.2
100
AcDbArc
 50
315.0
 51
23.98448800565546
  0
ARC
  5
18F
330
1F
100
AcDbEntity
  8
NoLayerName_001
  6
Continuous
 62
     3
370
    50
100
AcDbCircle
 10
179.0630543223972
 20
235.0504721613451
 30
0.0
 40
0.2
100
AcDbArc
 50
45.0
 51
113.9844880056555
  0
ARC
  5
190
330
1F
100
AcDbEntity
  8
NoLayerName_001
  6
Continuous
 62
     3
370
    50
100
AcDbCircle
 10
184.9571491593541
 20
221.8024668000479
 30
0.0
 40
14.7
100
AcDbArc
 50
113.9844880056555
 51
156.0155119943436
  0
ARC
  5
191
330
1F
100
AcDbEntity
  8
NoLayerName_001
  6
Continuous
 62
     3
370
    50
100
AcDbCircle
 10
171.7091437980571
 20
227.6965616370051
 30
0.0
 40
0.2
100
AcDbArc
 50
156.0155119943436
 51
225.0
  0
ARC
  5
192
330
1F
100
AcDbEntity
  8
NoLayerName_001
  6
Continuous
 62
     3
370
    50
100
AcDbCircle
 10
184.9571491593541
 20
221.8024668000479
 30
0.0
 40
14.7
100
AcDbArc
 50
203.9844880056555
 51
246.0155119943436
  0
ARC
  5
193
330
1F
100
AcDbEntity
  8
NoLayerName_001
  6
Continuous
 62
     3
370
    50
100
AcDbCircle
 10
179.063054322397
 20
208.5544614387509
 30
0.0
 40
0.2
100
AcDbArc
 50
246.0155119943436
 51
315.0
  0
ARC
  5
194
330
1F
100
AcDbEntity
  8
NoLayerName_001
  6
Continuous
 62
     3
370
    50
100
AcDbCircle
 10
190.8512439963111
 20
208.5544614387508
 30
0.0
 40
0.2
100
AcDbArc
 50
225.0
 51
293.9844880056555
  0
ARC
  5
195
330
1F
100
AcDbEntity
  8
NoLayerName_001
  6
Continuous
 62
     3
370
    50
100
AcDbCircle
 10
184.9571491593541
 20
221.8024668000479
 30
0.0
 40
14.7
100
AcDbArc
 50
293.9844880056555
 51
336.0155119943436
  0
ARC
  5
196
330
1F
100
AcDbEntity
  8
NoLayerName_001
  6
Continuous
 62
     3
370
    50
100
AcDbCircle
 10
198.2051545206512
 20
215.9083719630909
 30
0.0
 40
0.2
100
AcDbArc
 50
336.0155119943436
 51
45.0
  0
LINE
  5
197
330
1F
100
AcDbEntity
  8
NoLayerName_001
  6
Continuous
 62
     7
370
    50
100
AcDbLine
 10
185.257149159354
 20
237.1995444448479
 30
0.0
 11
185.257149159354
 21
235.0990829109237
 31
0.0
  0
LINE
  5
198
330
1F
100
AcDbEntity
  8
NoLayerName_001
  6
Continuous
 62
     7
370
    50
100
AcDbLine
 10
183.4738155925625
 20
237.1308627216579
 30
0.0
 11
183.6488156847131
 21
235.0379593681065
 31
0.0
  0
LINE
  5
199
330
1F
100
AcDbEntity
  8
NoLayerName_001
  6
Continuous
 62
     7
370
    50
100
AcDbLine
 10
169.5600715145541
 20
222.1024668000479
 30
0.0
 11
171.6605330484783
 21
222.1024668000479
 31
0.0
  0
LINE
  5
19A
330
1F
100
AcDbEntity
  8
NoLayerName_001
  6
Continuous
 62
     7
370
    50
100
AcDbLine
 10
169.6287532377442
 20
220.3191332332563
 30
0.0
 11
171.7216565912955
 21
220.4941333254068
 31
0.0
  0
LINE
  5
19B
330
1F
100
AcDbEntity
  8
NoLayerName_001
  6
Continuous
 62
     7
370
    50
100
AcDbLine
 10
184.6571491593541
 20
206.4053891552479
 30
0.0
 11
184.6571491593541
 21
208.5058506891722
 31
0.0
  0
LINE
  5
19C
330
1F
100
AcDbEntity
  8
NoLayerName_001
  6
Continuous
 62
     7
370
    50
100
AcDbLine
 10
186.4404827261458
 20
206.4740708784379
 30
0.0
 11
186.2654826339953
 21
208.5669742319893
 31
0.0
  0
LINE
  5
19D
330
1F
100
AcDbEntity
  8
NoLayerName_001
  6
Continuous
 62
     7
370
    50
100
AcDbLine
 10
200.3542268041541
 20
221.502466800048
 30
0.0
 11
198.2537652702298
 21
221.502466800048
 31
0.0
  0
LINE
  5
19E
330
1F
100
AcDbEntity
  8
NoLayerName_001
  6
Continuous
 62
     7
370
    50
100
AcDbLine
 10
200.2855450809641
 20
223.2858003668396
 30
0.0
 11
198.1926417274126
 21
223.110800274689
 31
0.0
  0
ARC
  5
19F
330
1F
100
AcDbEntity
  8
NoLayerName_001
  6
Continuous
 62
     7
370
    50
100
AcDbCircle
 10
184.9571491593541
 20
221.8024668000479
 30
0.0
 40
15.4
100
AcDbArc
 50
358.8837778441415
 51
5.527319489113202
  0
ARC
  5
1A0
330
1F
100
AcDbEntity
  8
NoLayerName_001
  6
Continuous
 62
     7
370
    50
100
AcDbCircle
 10
184.9571491593541
 20
221.8024668000479
 30
0.0
 40
15.4
100
AcDbArc
 50
88.88377784414162
 51
95.52731948911182
  0
ARC
  5
1A1
330
1F
100
AcDbEntity
  8
NoLayerName_001
  6
Continuous
 62
     7
370
    50
100
AcDbCircle
 10
184.9571491593541
 20
221.8024668000479
 30
0.0
 40
15.4
100
AcDbArc
 50
178.8837778441415
 51
185.5273194891119
  0
ARC
  5
1A2
330
1F
100
AcDbEntity
  8
NoLayerName_001
  6
Continuous
 62
     7
370
    50
100
AcDbCircle
 10
184.9571491593541
 20
221.8024668000479
 30
0.0
 40
15.4
100
AcDbArc
 50
268.8837778441415
 51
275.5273194891119
  0
LINE
  5
1A3
330
1F
100
AcDbEntity
  8
NoLayerName_001
  6
Continuous
 62
     3
370
    50
100
AcDbLine
 10
181.9571491593541
 20
227.502466800048
 30
0.0
 11
187.9571491593541
 21
227.502466800048
 31
0.0
  0
LINE
  5
1A4
330
1F
100
AcDbEntity
  8
NoLayerName_001
  6
Continuous
 62
     3
370
    50
100
AcDbLine
 10
181.9571491593541
 20
227.502466800048
 30
0.0
 11
181.9571491593541
 21
224.802466800048
 31
0.0
  0
LINE
  5
1A5
330
1F
100
AcDbEntity
  8
NoLayerName_001
  6
Continuous
 62
     3
370
    50
100
AcDbLine
 10
187.9571491593541
 20
227.502466800048
 30
0.0
 11
187.9571491593541
 21
224.802466800048
 31
0.0
  0
LINE
  5
1A6
330
1F
100
AcDbEntity
  8
NoLayerName_001
  6
Continuous
 62
     3
370
    50
100
AcDbLine
 10
181.9571491593541
 20
226.502466800048
 30
0.0
 11
187.9571491593541
 21
226.502466800048
 31
0.0
  0
ARC
  5
1A7
330
1F
100
AcDbEntity
  8
NoLayerName_001
  6
Continuous
 62
     3
370
    50
100
AcDbCircle
 10
184.9571491593541
 20
221.8024668000479
 30
0.0
 40
13.3
100
AcDbArc
 50
161.586759631728
 51
198.4132403682721
  0
LINE
  5
1A8
330
1F
100
AcDbEntity
  8
NoLayerName_001
  6
Continuous
 62
     3
370
    50
100
AcDbLine
 10
172.0963724170859
 20
227.0264903055017
 30
0.0
 11
171.5677224418199
 21
227.5551402807678
 31
0.0
  0
ARC
  5
1A9
330
1F
100
AcDbEntity
  8
NoLayerName_001
  6
Continuous
 62
     3
370
    50
100
AcDbCircle
 10
171.3892656358993
 20
226.3193835243152
 30
0.0
 40
1.0
100
AcDbArc
 50
341.5867596317279
 51
45.0
  0
ARC
  5
1AA
330
1F
100
AcDbEntity
  8
NoLayerName_001
  6
Continuous
 62
     3
370
    50
100
AcDbCircle
 10
184.9571491593541
 20
221.8024668000479
 30
0.0
 40
13.3
100
AcDbArc
 50
71.58675963172809
 51
108.4132403682719
  0
ARC
  5
1AB
330
1F
100
AcDbEntity
  8
NoLayerName_001
  6
Continuous
 62
     3
370
    50
100
AcDbCircle
 10
180.4402324350869
 20
235.3703503235026
 30
0.0
 40
1.0
100
AcDbArc
 50
225.0
 51
288.4132403682719
  0
ARC
  5
1AC
330
1F
100
AcDbEntity
  8
NoLayerName_001
  6
Continuous
 62
     3
370
    50
100
AcDbCircle
 10
189.4740658836212
 20
235.3703503235026
 30
0.0
 40
1.0
100
AcDbArc
 50
251.5867596317281
 51
315.0
  0
ARC
  5
1AD
330
1F
100
AcDbEntity
  8
NoLayerName_001
  6
Continuous
 62
     3
370
    50
100
AcDbCircle
 10
184.9571491593541
 20
221.8024668000479
 30
0.0
 40
13.3
100
AcDbArc
 50
341.5867596317299
 51
18.41324036827043
  0
ARC
  5
1AE
330
1F
100
AcDbEntity
  8
NoLayerName_001
  6
Continuous
 62
     3
370
    50
100
AcDbCircle
 10
198.5250326828089
 20
226.3193835243148
 30
0.0
 40
1.0
100
AcDbArc
 50
135.0
 51
198.4132403682705
  0
ARC
  5
1AF
330
1F
100
AcDbEntity
  8
NoLayerName_001
  6
Continuous
 62
     3
370
    50
100
AcDbCircle
 10
198.525032682809
 20
217.2855500757811
 30
0.0
 40
1.0
100
AcDbArc
 50
161.5867596317299
 51
225.0
  0
ARC
  5
1B0
330
1F
100
AcDbEntity
  8
NoLayerName_001
  6
Continuous
 62
     3
370
    50
100
AcDbCircle
 10
189.4740658836212
 20
208.2345832765932
 30
0.0
 40
1.0
100
AcDbArc
 50
45.00000000000001
 51
108.4132403682719
  0
ARC
  5
1B1
330
1F
100
AcDbEntity
  8
NoLayerName_001
  6
Continuous
 62
     3
370
    50
100
AcDbCircle
 10
184.9571491593541
 20
221.8024668000479
 30
0.0
 40
13.3
100
AcDbArc
 50
251.5867596317281
 51
288.4132403682719
  0
ARC
  5
1B2
330
1F
100
AcDbEntity
  8
NoLayerName_001
  6
Continuous
 62
     3
370
    50
100
AcDbCircle
 10
180.4402324350869
 20
208.2345832765932
 30
0.0
 40
1.0
100
AcDbArc
 50
71.58675963172811
 51
135.0
  0
ARC
  5
1B3
330
1F
100
AcDbEntity
  8
NoLayerName_001
  6
Continuous
 62
     3
370
    50
100
AcDbCircle
 10
184.9571491593541
 20
221.8024668000479
 30
0.0
 40
14.5
100
AcDbArc
 50
24.53406956578775
 51
65.46593043421086
  0
LINE
  5
1B4
330
1F
100
AcDbEntity
  8
NoLayerName_001
  6
Continuous
 62
     3
370
    50
100
AcDbLine
 10
198.10748818869
 20
227.5988953050435
 30
0.0
 11
197.6765045453851
 21
227.1679116617387
 31
0.0
  0
LINE
  5
1B5
330
1F
100
AcDbEntity
  8
NoLayerName_001
  6
Continuous
 62
     3
370
    50
100
AcDbLine
 10
190.75357766435
 20
234.9528058293836
 30
0.0
 11
190.3225940210451
 21
234.5218221860788
 31
0.0
  0
ARC
  5
1B6
330
1F
100
AcDbEntity
  8
NoLayerName_001
  6
Continuous
 62
     3
370
    50
100
AcDbCircle
 10
189.4740658836212
 20
235.3703503235026
 30
0.0
 40
1.2
100
AcDbArc
 50
251.5867596317281
 51
315.0
  0
ARC
  5
1B7
330
1F
100
AcDbEntity
  8
NoLayerName_001
  6
Continuous
 62
     3
370
    50
100
AcDbCircle
 10
198.5250326828089
 20
226.3193835243148
 30
0.0
 40
1.2
100
AcDbArc
 50
135.0
 51
198.4132403682705
  0
ARC
  5
1B8
330
1F
100
AcDbEntity
  8
NoLayerName_001
  6
Continuous
 62
     3
370
    50
100
AcDbCircle
 10
184.9571491593541
 20
221.8024668000479
 30
0.0
 40
13.1
100
AcDbArc
 50
341.5867596317299
 51
18.41324036827043
  0
ARC
  5
1B9
330
1F
100
AcDbEntity
  8
NoLayerName_001
  6
Continuous
 62
     3
370
    50
100
AcDbCircle
 10
184.9571491593541
 20
221.8024668000479
 30
0.0
 40
13.1
100
AcDbArc
 50
71.58675963172809
 51
108.4132403682719
  0
ARC
  5
1BA
330
1F
100
AcDbEntity
  8
NoLayerName_001
  6
Continuous
 62
     3
370
    50
100
AcDbCircle
 10
180.4402324350869
 20
235.3703503235026
 30
0.0
 40
1.2
100
AcDbArc
 50
225.0
 51
288.4132403682719
  0
ARC
  5
1BB
330
1F
100
AcDbEntity
  8
NoLayerName_001
  6
Continuous
 62
     3
370
    50
100
AcDbCircle
 10
184.9571491593541
 20
221.8024668000479
 30
0.0
 40
14.5
100
AcDbArc
 50
114.5340695657892
 51
155.4659304342108
  0
LINE
  5
1BC
330
1F
100
AcDbEntity
  8
NoLayerName_001
  6
Continuous
 62
     3
370
    50
100
AcDbLine
 10
179.1607206543582
 20
234.9528058293836
 30
0.0
 11
179.591704297663
 21
234.5218221860788
 31
0.0
  0
LINE
  5
1BD
330
1F
100
AcDbEntity
  8
NoLayerName_001
  6
Continuous
 62
     3
370
    50
100
AcDbLine
 10
171.8068101300184
 20
227.5988953050439
 30
0.0
 11
172.2377937733232
 21
227.167911661739
 31
0.0
  0
ARC
  5
1BE
330
1F
100
AcDbEntity
  8
NoLayerName_001
  6
Continuous
 62
     3
370
    50
100
AcDbCircle
 10
171.3892656358993
 20
226.3193835243152
 30
0.0
 40
1.2
100
AcDbArc
 50
341.5867596317279
 51
45.0
  0
ARC
  5
1BF
330
1F
100
AcDbEntity
  8
NoLayerName_001
  6
Continuous
 62
     3
370
    50
100
AcDbCircle
 10
184.9571491593541
 20
221.8024668000479
 30
0.0
 40
13.1
100
AcDbArc
 50
161.586759631728
 51
198.2111247011348
  0
ARC
  5
1C0
330
1F
100
AcDbEntity
  8
NoLayerName_001
  6
Continuous
 62
     3
370
    50
100
AcDbCircle
 10
171.7091437980571
 20
215.9083719630908
 30
0.0
 40
0.2
100
AcDbArc
 50
135.0
 51
203.9844880056564
  0
LINE
  5
1C1
330
1F
100
AcDbEntity
  8
NoLayerName_001
  6
Continuous
 62
     3
370
    50
100
AcDbLine
 10
172.0963724170859
 20
216.5784432945941
 30
0.0
 11
171.5677224418199
 21
216.049793319328
 31
0.0
  0
ARC
  5
1C2
330
1F
100
AcDbEntity
  8
NoLayerName_001
  6
Continuous
 62
     3
370
    50
100
AcDbCircle
 10
171.3892656358993
 20
217.2855500757806
 30
0.0
 40
1.0
100
AcDbArc
 50
315.0
 51
18.41324036827208
  0
ARC
  5
1C3
330
1F
100
AcDbEntity
  8
NoLayerName_001
  6
Continuous
 62
     3
370
    50
100
AcDbCircle
 10
171.3892656358993
 20
217.2855500757806
 30
0.0
 40
1.2
100
AcDbArc
 50
315.0
 51
18.41324036827208
  0
LINE
  5
1C4
330
1F
100
AcDbEntity
  8
NoLayerName_001
  6
Continuous
 62
     3
370
    50
100
AcDbLine
 10
171.8068101300184
 20
216.006038295052
 30
0.0
 11
172.2377937733232
 21
216.4370219383568
 31
0.0
  0
ARC
  5
1C5
330
1F
100
AcDbEntity
  8
NoLayerName_001
  6
Continuous
 62
     3
370
    50
100
AcDbCircle
 10
184.9571491593541
 20
221.8024668000479
 30
0.0
 40
14.5
100
AcDbArc
 50
204.5340695657892
 51
245.4659304342109
  0
LINE
  5
1C6
330
1F
100
AcDbEntity
  8
NoLayerName_001
  6
Continuous
 62
     3
370
    50
100
AcDbLine
 10
179.1607206543582
 20
208.6521277707122
 30
0.0
 11
179.6708460854054
 21
209.1622532017595
 31
0.0
  0
ARC
  5
1C7
330
1F
100
AcDbEntity
  8
NoLayerName_001
  6
Continuous
 62
     3
370
    50
100
AcDbCircle
 10
180.4402324350869
 20
208.2345832765932
 30
0.0
 40
1.2
100
AcDbArc
 50
127.1289669418648
 51
135.0
  0
ARC
  5
1C8
330
1F
100
AcDbEntity
  8
NoLayerName_001
  6
Continuous
 62
     3
370
    50
100
AcDbCircle
 10
184.9571491593541
 20
221.8024668000479
 30
0.0
 40
13.1
100
AcDbArc
 50
255.5024931921641
 51
288.4132403682719
  0
ARC
  5
1C9
330
1F
100
AcDbEntity
  8
NoLayerName_001
  6
Continuous
 62
     3
370
    50
100
AcDbCircle
 10
189.4740658836212
 20
208.2345832765932
 30
0.0
 40
1.2
100
AcDbArc
 50
45.00000000000001
 51
108.4132403682719
  0
LINE
  5
1CA
330
1F
100
AcDbEntity
  8
NoLayerName_001
  6
Continuous
 62
     3
370
    50
100
AcDbLine
 10
190.7535776643498
 20
208.6521277707121
 30
0.0
 11
190.2434522333027
 21
209.1622532017593
 31
0.0
  0
ARC
  5
1CB
330
1F
100
AcDbEntity
  8
NoLayerName_001
  6
Continuous
 62
     3
370
    50
100
AcDbCircle
 10
184.9571491593541
 20
221.8024668000479
 30
0.0
 40
14.5
100
AcDbArc
 50
294.5340695657887
 51
335.4659304342127
  0
LINE
  5
1CC
330
1F
100
AcDbEntity
  8
NoLayerName_001
  6
Continuous
 62
     3
370
    50
100
AcDbLine
 10
198.10748818869
 20
216.0060382950523
 30
0.0
 11
197.6765045453851
 21
216.4370219383572
 31
0.0
  0
ARC
  5
1CD
330
1F
100
AcDbEntity
  8
NoLayerName_001
  6
Continuous
 62
     3
370
    50
100
AcDbCircle
 10
198.525032682809
 20
217.2855500757811
 30
0.0
 40
1.2
100
AcDbArc
 50
161.5867596317299
 51
225.0
  0
ARC
  5
1CE
330
1F
100
AcDbEntity
  8
NoLayerName_001
  6
Continuous
 62
     3
370
    50
100
AcDbCircle
 10
197.9660668324527
 20
215.8646169388151
 30
0.0
 40
0.2
100
AcDbArc
 50
335.4659304342127
 51
45.0
  0
ARC
  5
1CF
330
1F
100
AcDbEntity
  8
NoLayerName_001
  6
Continuous
 62
     3
370
    50
100
AcDbCircle
 10
190.8949990205871
 20
208.7935491269494
 30
0.0
 40
0.2
100
AcDbArc
 50
225.0
 51
294.5340695657887
  0
ARC
  5
1D0
330
1F
100
AcDbEntity
  8
NoLayerName_001
  6
Continuous
 62
     3
370
    50
100
AcDbCircle
 10
179.0192992981209
 20
208.7935491269495
 30
0.0
 40
0.2
100
AcDbArc
 50
245.4659304342109
 51
315.0
  0
ARC
  5
1D1
330
1F
100
AcDbEntity
  8
NoLayerName_001
  6
Continuous
 62
     3
370
    50
100
AcDbCircle
 10
171.9482314862557
 20
215.8646169388147
 30
0.0
 40
0.2
100
AcDbArc
 50
135.0
 51
204.5340695657892
  0
ARC
  5
1D2
330
1F
100
AcDbEntity
  8
NoLayerName_001
  6
Continuous
 62
     3
370
    50
100
AcDbCircle
 10
171.9482314862557
 20
227.7403166612812
 30
0.0
 40
0.2
100
AcDbArc
 50
155.4659304342107
 51
225.0
  0
ARC
  5
1D3
330
1F
100
AcDbEntity
  8
NoLayerName_001
  6
Continuous
 62
     3
370
    50
100
AcDbCircle
 10
179.0192992981208
 20
234.8113844731463
 30
0.0
 40
0.2
100
AcDbArc
 50
45.0
 51
114.5340695657891
  0
ARC
  5
1D4
330
1F
100
AcDbEntity
  8
NoLayerName_001
  6
Continuous
 62
     3
370
    50
100
AcDbCircle
 10
190.8949990205874
 20
234.8113844731463
 30
0.0
 40
0.2
100
AcDbArc
 50
65.46593043421083
 51
135.0
  0
ARC
  5
1D5
330
1F
100
AcDbEntity
  8
NoLayerName_001
  6
Continuous
 62
     3
370
    50
100
AcDbCircle
 10
197.9660668324527
 20
227.7403166612808
 30
0.0
 40
0.2
100
AcDbArc
 50
315.0
 51
24.53406956578774
  0
ARC
  5
1D6
330
1F
100
AcDbEntity
  8
NoLayerName_001
  6
Continuous
 62
     3
370
    50
100
AcDbCircle
 10
184.9071491593539
 20
221.8524668000481
 30
0.0
 40
11.80000000000001
100
AcDbArc
 50
153.273863272097
 51
207.0873388954706
  0
ARC
  5
1D7
330
1F
100
AcDbEntity
  8
NoLayerName_001
  6
Continuous
 62
     3
370
    50
100
AcDbCircle
 10
185.0071491593542
 20
221.8524668000481
 30
0.0
 40
11.8
100
AcDbArc
 50
63.2738632720971
 51
117.0873388954705
  0
ARC
  5
1D8
330
1F
100
AcDbEntity
  8
NoLayerName_001
  6
Continuous
 62
     3
370
    50
100
AcDbCircle
 10
184.9571491593541
 20
221.8024668000479
 30
0.0
 40
13.2
100
AcDbArc
 50
28.72170866977565
 51
61.27829133022436
  0
ARC
  5
1D9
330
1F
100
AcDbEntity
  8
NoLayerName_001
  6
Continuous
 62
     3
370
    50
100
AcDbCircle
 10
185.0071491593542
 20
221.7524668000477
 30
0.0
 40
11.80000000000001
100
AcDbArc
 50
333.2738632720969
 51
27.08733889547062
  0
LINE
  5
1DA
330
1F
100
AcDbEntity
  8
NoLayerName_001
  6
Continuous
 62
     3
370
    50
100
AcDbLine
 10
191.3004857578225
 20
233.3783935792968
 30
0.0
 11
190.3139216567106
 21
232.3918294781849
 31
0.0
  0
LINE
  5
1DB
330
1F
100
AcDbEntity
  8
NoLayerName_001
  6
Continuous
 62
     3
370
    50
100
AcDbLine
 10
195.5128478488215
 20
227.1255753087349
 30
0.0
 11
196.533075938603
 21
228.1458033985163
 31
0.0
  0
ARC
  5
1DC
330
1F
100
AcDbEntity
  8
NoLayerName_001
  6
Continuous
 62
     3
370
    50
100
AcDbCircle
 10
184.9571491593541
 20
221.8024668000479
 30
0.0
 40
13.2
100
AcDbArc
 50
118.7217086697756
 51
151.2782913302243
  0
LINE
  5
1DD
330
1F
100
AcDbEntity
  8
NoLayerName_001
  6
Continuous
 62
     3
370
    50
100
AcDbLine
 10
178.6138125608856
 20
233.3783935792968
 30
0.0
 11
179.6003766619975
 21
232.3918294781849
 31
0.0
  0
LINE
  5
1DE
330
1F
100
AcDbEntity
  8
NoLayerName_001
  6
Continuous
 62
     3
370
    50
100
AcDbLine
 10
174.367786481217
 20
227.1592392974044
 30
0.0
 11
173.3812223801051
 21
228.1458033985163
 31
0.0
  0
ARC
  5
1DF
330
1F
100
AcDbEntity
  8
NoLayerName_001
  6
Continuous
 62
     3
370
    50
100
AcDbCircle
 10
185.0071491593542
 20
221.7524668000477
 30
0.0
 40
11.8
100
AcDbArc
 50
242.9126611045295
 51
296.7261367279029
  0
LINE
  5
1E0
330
1F
100
AcDbEntity
  8
NoLayerName_001
  6
Continuous
 62
     3
370
    50
100
AcDbLine
 10
191.3004857578225
 20
210.226540020799
 30
0.0
 11
190.3139216567106
 21
211.2131041219109
 31
0.0
  0
ARC
  5
1E1
330
1F
100
AcDbEntity
  8
NoLayerName_001
  6
Continuous
 62
     3
370
    50
100
AcDbCircle
 10
184.9571491593541
 20
221.8024668000479
 30
0.0
 40
13.2
100
AcDbArc
 50
298.7217086697756
 51
331.2782913302244
  0
LINE
  5
1E2
330
1F
100
AcDbEntity
  8
NoLayerName_001
  6
Continuous
 62
     3
370
    50
100
AcDbLine
 10
195.5128478488215
 20
216.4793582913609
 30
0.0
 11
196.533075938603
 21
215.4591302015795
 31
0.0
  0
LINE
  5
1E3
330
1F
100
AcDbEntity
  8
NoLayerName_001
  6
Continuous
 62
     3
370
    50
100
AcDbLine
 10
178.6138125608856
 20
210.226540020799
 30
0.0
 11
179.6340406506671
 21
211.2467681105805
 31
0.0
  0
ARC
  5
1E4
330
1F
100
AcDbEntity
  8
NoLayerName_001
  6
Continuous
 62
     3
370
    50
100
AcDbCircle
 10
184.9571491593541
 20
221.8024668000479
 30
0.0
 40
13.2
100
AcDbArc
 50
208.7217086697756
 51
241.2782913302244
  0
LINE
  5
1E5
330
1F
100
AcDbEntity
  8
NoLayerName_001
  6
Continuous
 62
     3
370
    50
100
AcDbLine
 10
174.4014504698866
 20
216.4793582913609
 30
0.0
 11
173.3812223801051
 21
215.4591302015795
 31
0.0
  0
LINE
  5
1E6
330
1F
100
AcDbEntity
  8
NoLayerName_001
  6
Continuous
 62
     3
370
    50
100
AcDbLine
 10
181.5892618100062
 20
208.9359468819775
 30
0.0
 11
182.0892618100062
 21
210.3189225806678
 31
0.0
  0
LINE
  5
1E7
330
1F
100
AcDbEntity
  8
NoLayerName_001
  6
Continuous
 62
     3
370
    50
100
AcDbLine
 10
179.8153797056686
 20
209.0153259144314
 30
0.0
 11
179.3153797056686
 21
210.928107165582
 31
0.0
  0
CIRCLE
  5
1E8
330
1F
100
AcDbEntity
  8
NoLayerName_001
  6
Continuous
 62
     3
370
    50
100
AcDbCircle
 10
233.9571491593541
 20
221.8024668000479
 30
0.0
 40
15.6
  0
LINE
  5
1E9
330
1F
100
AcDbEntity
  8
NoLayerName_001
  6
Continuous
 62
     3
370
    50
100
AcDbLine
 10
228.2044756786343
 20
208.4130400825137
 30
0.0
 11
228.8122674416427
 21
209.0208318455221
 31
0.0
  0
LINE
  5
1EA
330
1F
100
AcDbEntity
  8
NoLayerName_001
  6
Continuous
 62
     3
370
    50
100
AcDbLine
 10
246.8179259016223
 20
216.5784432945946
 30
0.0
 11
247.3465758768887
 21
216.0497933193283
 31
0.0
  0
LINE
  5
1EB
330
1F
100
AcDbEntity
  8
NoLayerName_001
  6
Continuous
 62
     3
370
    50
100
AcDbLine
 10
239.7098226400738
 20
208.4130400825136
 30
0.0
 11
239.1020308770654
 21
209.020831845522
 31
0.0
  0
LINE
  5
1EC
330
1F
100
AcDbEntity
  8
NoLayerName_001
  6
Continuous
 62
     3
370
    50
100
AcDbLine
 10
239.1811726648079
 20
234.6632435423161
 30
0.0
 11
239.7098226400741
 21
235.1918935175823
 31
0.0
  0
LINE
  5
1ED
330
1F
100
AcDbEntity
  8
NoLayerName_001
  6
Continuous
 62
     3
370
    50
100
AcDbLine
 10
246.8179259016223
 20
227.0264903055013
 30
0.0
 11
247.3465758768885
 21
227.5551402807675
 31
0.0
  0
LINE
  5
1EE
330
1F
100
AcDbEntity
  8
NoLayerName_001
  6
Continuous
 62
     3
370
    50
100
AcDbLine
 10
228.7331256539002
 20
234.6632435423161
 30
0.0
 11
228.2044756786343
 21
235.1918935175821
 31
0.0
  0
LINE
  5
1EF
330
1F
100
AcDbEntity
  8
NoLayerName_001
  6
Continuous
 62
     3
370
    50
100
AcDbLine
 10
228.7571491593542
 20
213.8024668000479
 30
0.0
 11
239.1571491593542
 21
213.8024668000479
 31
0.0
  0
LINE
  5
1F0
330
1F
100
AcDbEntity
  8
NoLayerName_001
  6
Continuous
 62
     3
370
    50
100
AcDbLine
 10
228.7571491593542
 20
220.8024668000479
 30
0.0
 11
239.1571491593542
 21
220.8024668000479
 31
0.0
  0
LINE
  5
1F1
330
1F
100
AcDbEntity
  8
NoLayerName_001
  6
Continuous
 62
     3
370
    50
100
AcDbLine
 10
228.7571491593542
 20
220.8024668000479
 30
0.0
 11
228.7571491593542
 21
213.8024668000479
 31
0.0
  0
LINE
  5
1F2
330
1F
100
AcDbEntity
  8
NoLayerName_001
  6
Continuous
 62
     3
370
    50
100
AcDbLine
 10
230.7571491593542
 20
218.4024668000479
 30
0.0
 11
230.7571491593542
 21
216.2024668000479
 31
0.0
  0
LINE
  5
1F3
330
1F
100
AcDbEntity
  8
NoLayerName_001
  6
Continuous
 62
     3
370
    50
100
AcDbLine
 10
237.1571491593539
 20
218.4024668000479
 30
0.0
 11
237.1571491593539
 21
216.2024668000479
 31
0.0
  0
LINE
  5
1F4
330
1F
100
AcDbEntity
  8
NoLayerName_001
  6
Continuous
 62
     3
370
    50
100
AcDbLine
 10
230.9571491593541
 20
224.8024668000479
 30
0.0
 11
236.9571491593541
 21
224.8024668000479
 31
0.0
  0
LINE
  5
1F5
330
1F
100
AcDbEntity
  8
NoLayerName_001
  6
Continuous
 62
     3
370
    50
100
AcDbLine
 10
239.1571491593539
 20
220.8024668000479
 30
0.0
 11
239.1571491593539
 21
213.8024668000479
 31
0.0
  0
LINE
  5
1F6
330
1F
100
AcDbEntity
  8
NoLayerName_001
  6
Continuous
 62
     3
370
    50
100
AcDbLine
 10
237.1571491593539
 20
218.4024668000479
 30
0.0
 11
230.7571491593542
 21
218.4024668000479
 31
0.0
  0
LINE
  5
1F7
330
1F
100
AcDbEntity
  8
NoLayerName_001
  6
Continuous
 62
     3
370
    50
100
AcDbLine
 10
237.1571491593539
 20
216.2024668000479
 30
0.0
 11
230.7571491593542
 21
216.2024668000479
 31
0.0
  0
ARC
  5
1F8
330
1F
100
AcDbEntity
  8
NoLayerName_001
  6
Continuous
 62
     3
370
    50
100
AcDbCircle
 10
239.8512439963113
 20
235.0504721613449
 30
0.0
 40
0.2
100
AcDbArc
 50
66.01551199434357
 51
135.0
  0
ARC
  5
1F9
330
1F
100
AcDbEntity
  8
NoLayerName_001
  6
Continuous
 62
     3
370
    50
100
AcDbCircle
 10
233.9571491593541
 20
221.8024668000479
 30
0.0
 40
14.7
100
AcDbArc
 50
23.98448800565551
 51
66.01551199434357
  0
ARC
  5
1FA
330
1F
100
AcDbEntity
  8
NoLayerName_001
  6
Continuous
 62
     3
370
    50
100
AcDbCircle
 10
247.2051545206512
 20
227.6965616370048
 30
0.0
 40
0.2
100
AcDbArc
 50
315.0
 51
23.98448800565546
  0
ARC
  5
1FB
330
1F
100
AcDbEntity
  8
NoLayerName_001
  6
Continuous
 62
     3
370
    50
100
AcDbCircle
 10
228.0630543223972
 20
235.0504721613451
 30
0.0
 40
0.2
100
AcDbArc
 50
45.0
 51
113.9844880056555
  0
ARC
  5
1FC
330
1F
100
AcDbEntity
  8
NoLayerName_001
  6
Continuous
 62
     3
370
    50
100
AcDbCircle
 10
233.9571491593541
 20
221.8024668000479
 30
0.0
 40
14.7
100
AcDbArc
 50
113.9844880056555
 51
156.0155119943436
  0
ARC
  5
1FD
330
1F
100
AcDbEntity
  8
NoLayerName_001
  6
Continuous
 62
     3
370
    50
100
AcDbCircle
 10
220.7091437980571
 20
227.6965616370051
 30
0.0
 40
0.2
100
AcDbArc
 50
156.0155119943436
 51
225.0
  0
ARC
  5
1FE
330
1F
100
AcDbEntity
  8
NoLayerName_001
  6
Continuous
 62
     3
370
    50
100
AcDbCircle
 10
233.9571491593541
 20
221.8024668000479
 30
0.0
 40
14.7
100
AcDbArc
 50
203.9844880056555
 51
246.0155119943436
  0
ARC
  5
1FF
330
1F
100
AcDbEntity
  8
NoLayerName_001
  6
Continuous
 62
     3
370
    50
100
AcDbCircle
 10
228.063054322397
 20
208.5544614387509
 30
0.0
 40
0.2
100
AcDbArc
 50
246.0155119943436
 51
315.0
  0
ARC
  5
200
330
1F
100
AcDbEntity
  8
NoLayerName_001
  6
Continuous
 62
     3
370
    50
100
AcDbCircle
 10
239.8512439963111
 20
208.5544614387508
 30
0.0
 40
0.2
100
AcDbArc
 50
225.0
 51
293.9844880056555
  0
ARC
  5
201
330
1F
100
AcDbEntity
  8
NoLayerName_001
  6
Continuous
 62
     3
370
    50
100
AcDbCircle
 10
233.9571491593541
 20
221.8024668000479
 30
0.0
 40
14.7
100
AcDbArc
 50
293.9844880056555
 51
336.0155119943436
  0
ARC
  5
202
330
1F
100
AcDbEntity
  8
NoLayerName_001
  6
Continuous
 62
     3
370
    50
100
AcDbCircle
 10
247.2051545206512
 20
215.9083719630909
 30
0.0
 40
0.2
100
AcDbArc
 50
336.0155119943436
 51
45.0
  0
LINE
  5
203
330
1F
100
AcDbEntity
  8
NoLayerName_001
  6
Continuous
 62
     7
370
    50
100
AcDbLine
 10
234.257149159354
 20
237.1995444448479
 30
0.0
 11
234.257149159354
 21
235.0990829109237
 31
0.0
  0
LINE
  5
204
330
1F
100
AcDbEntity
  8
NoLayerName_001
  6
Continuous
 62
     7
370
    50
100
AcDbLine
 10
232.4738155925625
 20
237.1308627216579
 30
0.0
 11
232.6488156847131
 21
235.0379593681065
 31
0.0
  0
LINE
  5
205
330
1F
100
AcDbEntity
  8
NoLayerName_001
  6
Continuous
 62
     7
370
    50
100
AcDbLine
 10
218.5600715145541
 20
222.1024668000479
 30
0.0
 11
220.6605330484783
 21
222.1024668000479
 31
0.0
  0
LINE
  5
206
330
1F
100
AcDbEntity
  8
NoLayerName_001
  6
Continuous
 62
     7
370
    50
100
AcDbLine
 10
218.6287532377442
 20
220.3191332332563
 30
0.0
 11
220.7216565912955
 21
220.4941333254068
 31
0.0
  0
LINE
  5
207
330
1F
100
AcDbEntity
  8
NoLayerName_001
  6
Continuous
 62
     7
370
    50
100
AcDbLine
 10
233.6571491593541
 20
206.4053891552479
 30
0.0
 11
233.6571491593541
 21
208.5058506891722
 31
0.0
  0
LINE
  5
208
330
1F
100
AcDbEntity
  8
NoLayerName_001
  6
Continuous
 62
     7
370
    50
100
AcDbLine
 10
235.4404827261458
 20
206.4740708784379
 30
0.0
 11
235.2654826339953
 21
208.5669742319893
 31
0.0
  0
LINE
  5
209
330
1F
100
AcDbEntity
  8
NoLayerName_001
  6
Continuous
 62
     7
370
    50
100
AcDbLine
 10
249.3542268041541
 20
221.502466800048
 30
0.0
 11
247.2537652702298
 21
221.502466800048
 31
0.0
  0
LINE
  5
20A
330
1F
100
AcDbEntity
  8
NoLayerName_001
  6
Continuous
 62
     7
370
    50
100
AcDbLine
 10
249.2855450809641
 20
223.2858003668396
 30
0.0
 11
247.1926417274126
 21
223.110800274689
 31
0.0
  0
ARC
  5
20B
330
1F
100
AcDbEntity
  8
NoLayerName_001
  6
Continuous
 62
     7
370
    50
100
AcDbCircle
 10
233.9571491593541
 20
221.8024668000479
 30
0.0
 40
15.4
100
AcDbArc
 50
358.8837778441415
 51
5.527319489113202
  0
ARC
  5
20C
330
1F
100
AcDbEntity
  8
NoLayerName_001
  6
Continuous
 62
     7
370
    50
100
AcDbCircle
 10
233.9571491593541
 20
221.8024668000479
 30
0.0
 40
15.4
100
AcDbArc
 50
88.88377784414162
 51
95.52731948911182
  0
ARC
  5
20D
330
1F
100
AcDbEntity
  8
NoLayerName_001
  6
Continuous
 62
     7
370
    50
100
AcDbCircle
 10
233.9571491593541
 20
221.8024668000479
 30
0.0
 40
15.4
100
AcDbArc
 50
178.8837778441415
 51
185.5273194891119
  0
ARC
  5
20E
330
1F
100
AcDbEntity
  8
NoLayerName_001
  6
Continuous
 62
     7
370
    50
100
AcDbCircle
 10
233.9571491593541
 20
221.8024668000479
 30
0.0
 40
15.4
100
AcDbArc
 50
268.8837778441415
 51
275.5273194891119
  0
LINE
  5
20F
330
1F
100
AcDbEntity
  8
NoLayerName_001
  6
Continuous
 62
     3
370
    50
100
AcDbLine
 10
230.9571491593541
 20
227.502466800048
 30
0.0
 11
236.9571491593541
 21
227.502466800048
 31
0.0
  0
LINE
  5
210
330
1F
100
AcDbEntity
  8
NoLayerName_001
  6
Continuous
 62
     3
370
    50
100
AcDbLine
 10
230.9571491593541
 20
227.502466800048
 30
0.0
 11
230.9571491593541
 21
224.802466800048
 31
0.0
  0
LINE
  5
211
330
1F
100
AcDbEntity
  8
NoLayerName_001
  6
Continuous
 62
     3
370
    50
100
AcDbLine
 10
236.9571491593541
 20
227.502466800048
 30
0.0
 11
236.9571491593541
 21
224.802466800048
 31
0.0
  0
LINE
  5
212
330
1F
100
AcDbEntity
  8
NoLayerName_001
  6
Continuous
 62
     3
370
    50
100
AcDbLine
 10
230.9571491593541
 20
226.502466800048
 30
0.0
 11
236.9571491593541
 21
226.502466800048
 31
0.0
  0
ARC
  5
213
330
1F
100
AcDbEntity
  8
NoLayerName_001
  6
Continuous
 62
     3
370
    50
100
AcDbCircle
 10
233.9571491593541
 20
221.8024668000479
 30
0.0
 40
13.3
100
AcDbArc
 50
161.586759631728
 51
198.4132403682721
  0
LINE
  5
214
330
1F
100
AcDbEntity
  8
NoLayerName_001
  6
Continuous
 62
     3
370
    50
100
AcDbLine
 10
221.0963724170859
 20
227.0264903055017
 30
0.0
 11
220.5677224418199
 21
227.5551402807678
 31
0.0
  0
ARC
  5
215
330
1F
100
AcDbEntity
  8
NoLayerName_001
  6
Continuous
 62
     3
370
    50
100
AcDbCircle
 10
220.3892656358993
 20
226.3193835243152
 30
0.0
 40
1.0
100
AcDbArc
 50
341.5867596317279
 51
45.0
  0
ARC
  5
216
330
1F
100
AcDbEntity
  8
NoLayerName_001
  6
Continuous
 62
     3
370
    50
100
AcDbCircle
 10
233.9571491593541
 20
221.8024668000479
 30
0.0
 40
13.3
100
AcDbArc
 50
71.58675963172809
 51
108.4132403682719
  0
ARC
  5
217
330
1F
100
AcDbEntity
  8
NoLayerName_001
  6
Continuous
 62
     3
370
    50
100
AcDbCircle
 10
229.4402324350869
 20
235.3703503235026
 30
0.0
 40
1.0
100
AcDbArc
 50
225.0
 51
288.4132403682719
  0
ARC
  5
218
330
1F
100
AcDbEntity
  8
NoLayerName_001
  6
Continuous
 62
     3
370
    50
100
AcDbCircle
 10
238.4740658836212
 20
235.3703503235026
 30
0.0
 40
1.0
100
AcDbArc
 50
251.5867596317281
 51
315.0
  0
ARC
  5
219
330
1F
100
AcDbEntity
  8
NoLayerName_001
  6
Continuous
 62
     3
370
    50
100
AcDbCircle
 10
233.9571491593541
 20
221.8024668000479
 30
0.0
 40
13.3
100
AcDbArc
 50
341.5867596317299
 51
18.41324036827043
  0
ARC
  5
21A
330
1F
100
AcDbEntity
  8
NoLayerName_001
  6
Continuous
 62
     3
370
    50
100
AcDbCircle
 10
247.5250326828089
 20
226.3193835243148
 30
0.0
 40
1.0
100
AcDbArc
 50
135.0
 51
198.4132403682705
  0
ARC
  5
21B
330
1F
100
AcDbEntity
  8
NoLayerName_001
  6
Continuous
 62
     3
370
    50
100
AcDbCircle
 10
247.525032682809
 20
217.2855500757811
 30
0.0
 40
1.0
100
AcDbArc
 50
161.5867596317299
 51
225.0
  0
ARC
  5
21C
330
1F
100
AcDbEntity
  8
NoLayerName_001
  6
Continuous
 62
     3
370
    50
100
AcDbCircle
 10
238.4740658836212
 20
208.2345832765932
 30
0.0
 40
1.0
100
AcDbArc
 50
45.00000000000001
 51
108.4132403682719
  0
ARC
  5
21D
330
1F
100
AcDbEntity
  8
NoLayerName_001
  6
Continuous
 62
     3
370
    50
100
AcDbCircle
 10
233.9571491593541
 20
221.8024668000479
 30
0.0
 40
13.3
100
AcDbArc
 50
251.5867596317281
 51
288.4132403682719
  0
ARC
  5
21E
330
1F
100
AcDbEntity
  8
NoLayerName_001
  6
Continuous
 62
     3
370
    50
100
AcDbCircle
 10
229.4402324350869
 20
208.2345832765932
 30
0.0
 40
1.0
100
AcDbArc
 50
71.58675963172811
 51
135.0
  0
ARC
  5
21F
330
1F
100
AcDbEntity
  8
NoLayerName_001
  6
Continuous
 62
     3
370
    50
100
AcDbCircle
 10
233.9571491593541
 20
221.8024668000479
 30
0.0
 40
14.5
100
AcDbArc
 50
24.53406956578775
 51
65.46593043421086
  0
LINE
  5
220
330
1F
100
AcDbEntity
  8
NoLayerName_001
  6
Continuous
 62
     3
370
    50
100
AcDbLine
 10
247.10748818869
 20
227.5988953050435
 30
0.0
 11
246.6765045453851
 21
227.1679116617387
 31
0.0
  0
LINE
  5
221
330
1F
100
AcDbEntity
  8
NoLayerName_001
  6
Continuous
 62
     3
370
    50
100
AcDbLine
 10
239.75357766435
 20
234.9528058293836
 30
0.0
 11
239.3225940210451
 21
234.5218221860788
 31
0.0
  0
ARC
  5
222
330
1F
100
AcDbEntity
  8
NoLayerName_001
  6
Continuous
 62
     3
370
    50
100
AcDbCircle
 10
238.4740658836212
 20
235.3703503235026
 30
0.0
 40
1.2
100
AcDbArc
 50
251.5867596317281
 51
315.0
  0
ARC
  5
223
330
1F
100
AcDbEntity
  8
NoLayerName_001
  6
Continuous
 62
     3
370
    50
100
AcDbCircle
 10
247.5250326828089
 20
226.3193835243148
 30
0.0
 40
1.2
100
AcDbArc
 50
135.0
 51
198.4132403682705
  0
ARC
  5
224
330
1F
100
AcDbEntity
  8
NoLayerName_001
  6
Continuous
 62
     3
370
    50
100
AcDbCircle
 10
233.9571491593541
 20
221.8024668000479
 30
0.0
 40
13.1
100
AcDbArc
 50
341.5867596317299
 51
18.41324036827043
  0
ARC
  5
225
330
1F
100
AcDbEntity
  8
NoLayerName_001
  6
Continuous
 62
     3
370
    50
100
AcDbCircle
 10
233.9571491593541
 20
221.8024668000479
 30
0.0
 40
13.1
100
AcDbArc
 50
71.58675963172809
 51
108.4132403682719
  0
ARC
  5
226
330
1F
100
AcDbEntity
  8
NoLayerName_001
  6
Continuous
 62
     3
370
    50
100
AcDbCircle
 10
229.4402324350869
 20
235.3703503235026
 30
0.0
 40
1.2
100
AcDbArc
 50
225.0
 51
288.4132403682719
  0
ARC
  5
227
330
1F
100
AcDbEntity
  8
NoLayerName_001
  6
Continuous
 62
     3
370
    50
100
AcDbCircle
 10
233.9571491593541
 20
221.8024668000479
 30
0.0
 40
14.5
100
AcDbArc
 50
114.5340695657892
 51
155.4659304342108
  0
LINE
  5
228
330
1F
100
AcDbEntity
  8
NoLayerName_001
  6
Continuous
 62
     3
370
    50
100
AcDbLine
 10
228.1607206543582
 20
234.9528058293836
 30
0.0
 11
228.591704297663
 21
234.5218221860788
 31
0.0
  0
LINE
  5
229
330
1F
100
AcDbEntity
  8
NoLayerName_001
  6
Continuous
 62
     3
370
    50
100
AcDbLine
 10
220.8068101300184
 20
227.5988953050439
 30
0.0
 11
221.2377937733232
 21
227.167911661739
 31
0.0
  0
ARC
  5
22A
330
1F
100
AcDbEntity
  8
NoLayerName_001
  6
Continuous
 62
     3
370
    50
100
AcDbCircle
 10
220.3892656358993
 20
226.3193835243152
 30
0.0
 40
1.2
100
AcDbArc
 50
341.5867596317279
 51
45.0
  0
ARC
  5
22B
330
1F
100
AcDbEntity
  8
NoLayerName_001
  6
Continuous
 62
     3
370
    50
100
AcDbCircle
 10
233.9571491593541
 20
221.8024668000479
 30
0.0
 40
13.1
100
AcDbArc
 50
161.586759631728
 51
198.2111247011348
  0
ARC
  5
22C
330
1F
100
AcDbEntity
  8
NoLayerName_001
  6
Continuous
 62
     3
370
    50
100
AcDbCircle
 10
220.7091437980571
 20
215.9083719630908
 30
0.0
 40
0.2
100
AcDbArc
 50
135.0
 51
203.9844880056564
  0
LINE
  5
22D
330
1F
100
AcDbEntity
  8
NoLayerName_001
  6
Continuous
 62
     3
370
    50
100
AcDbLine
 10
221.0963724170859
 20
216.5784432945941
 30
0.0
 11
220.5677224418199
 21
216.049793319328
 31
0.0
  0
ARC
  5
22E
330
1F
100
AcDbEntity
  8
NoLayerName_001
  6
Continuous
 62
     3
370
    50
100
AcDbCircle
 10
220.3892656358993
 20
217.2855500757806
 30
0.0
 40
1.0
100
AcDbArc
 50
315.0
 51
18.41324036827208
  0
ARC
  5
22F
330
1F
100
AcDbEntity
  8
NoLayerName_001
  6
Continuous
 62
     3
370
    50
100
AcDbCircle
 10
220.3892656358993
 20
217.2855500757806
 30
0.0
 40
1.2
100
AcDbArc
 50
315.0
 51
18.41324036827208
  0
LINE
  5
230
330
1F
100
AcDbEntity
  8
NoLayerName_001
  6
Continuous
 62
     3
370
    50
100
AcDbLine
 10
220.8068101300184
 20
216.006038295052
 30
0.0
 11
221.2377937733232
 21
216.4370219383568
 31
0.0
  0
ARC
  5
231
330
1F
100
AcDbEntity
  8
NoLayerName_001
  6
Continuous
 62
     3
370
    50
100
AcDbCircle
 10
233.9571491593541
 20
221.8024668000479
 30
0.0
 40
14.5
100
AcDbArc
 50
204.5340695657892
 51
245.4659304342109
  0
LINE
  5
232
330
1F
100
AcDbEntity
  8
NoLayerName_001
  6
Continuous
 62
     3
370
    50
100
AcDbLine
 10
228.1607206543582
 20
208.6521277707122
 30
0.0
 11
228.6708460854054
 21
209.1622532017595
 31
0.0
  0
ARC
  5
233
330
1F
100
AcDbEntity
  8
NoLayerName_001
  6
Continuous
 62
     3
370
    50
100
AcDbCircle
 10
229.4402324350869
 20
208.2345832765932
 30
0.0
 40
1.2
100
AcDbArc
 50
127.1289669418648
 51
135.0
  0
ARC
  5
234
330
1F
100
AcDbEntity
  8
NoLayerName_001
  6
Continuous
 62
     3
370
    50
100
AcDbCircle
 10
233.9571491593541
 20
221.8024668000479
 30
0.0
 40
13.1
100
AcDbArc
 50
255.5024931921641
 51
288.4132403682719
  0
ARC
  5
235
330
1F
100
AcDbEntity
  8
NoLayerName_001
  6
Continuous
 62
     3
370
    50
100
AcDbCircle
 10
238.4740658836212
 20
208.2345832765932
 30
0.0
 40
1.2
100
AcDbArc
 50
45.00000000000001
 51
108.4132403682719
  0
LINE
  5
236
330
1F
100
AcDbEntity
  8
NoLayerName_001
  6
Continuous
 62
     3
370
    50
100
AcDbLine
 10
239.7535776643498
 20
208.6521277707121
 30
0.0
 11
239.2434522333027
 21
209.1622532017593
 31
0.0
  0
ARC
  5
237
330
1F
100
AcDbEntity
  8
NoLayerName_001
  6
Continuous
 62
     3
370
    50
100
AcDbCircle
 10
233.9571491593541
 20
221.8024668000479
 30
0.0
 40
14.5
100
AcDbArc
 50
294.5340695657887
 51
335.4659304342127
  0
LINE
  5
238
330
1F
100
AcDbEntity
  8
NoLayerName_001
  6
Continuous
 62
     3
370
    50
100
AcDbLine
 10
247.10748818869
 20
216.0060382950523
 30
0.0
 11
246.6765045453851
 21
216.4370219383572
 31
0.0
  0
ARC
  5
239
330
1F
100
AcDbEntity
  8
NoLayerName_001
  6
Continuous
 62
     3
370
    50
100
AcDbCircle
 10
247.525032682809
 20
217.2855500757811
 30
0.0
 40
1.2
100
AcDbArc
 50
161.5867596317299
 51
225.0
  0
ARC
  5
23A
330
1F
100
AcDbEntity
  8
NoLayerName_001
  6
Continuous
 62
     3
370
    50
100
AcDbCircle
 10
246.9660668324527
 20
215.8646169388151
 30
0.0
 40
0.2
100
AcDbArc
 50
335.4659304342127
 51
45.0
  0
ARC
  5
23B
330
1F
100
AcDbEntity
  8
NoLayerName_001
  6
Continuous
 62
     3
370
    50
100
AcDbCircle
 10
239.8949990205871
 20
208.7935491269494
 30
0.0
 40
0.2
100
AcDbArc
 50
225.0
 51
294.5340695657887
  0
ARC
  5
23C
330
1F
100
AcDbEntity
  8
NoLayerName_001
  6
Continuous
 62
     3
370
    50
100
AcDbCircle
 10
228.0192992981209
 20
208.7935491269495
 30
0.0
 40
0.2
100
AcDbArc
 50
245.4659304342109
 51
315.0
  0
ARC
  5
23D
330
1F
100
AcDbEntity
  8
NoLayerName_001
  6
Continuous
 62
     3
370
    50
100
AcDbCircle
 10
220.9482314862557
 20
215.8646169388147
 30
0.0
 40
0.2
100
AcDbArc
 50
135.0
 51
204.5340695657892
  0
ARC
  5
23E
330
1F
100
AcDbEntity
  8
NoLayerName_001
  6
Continuous
 62
     3
370
    50
100
AcDbCircle
 10
220.9482314862557
 20
227.7403166612812
 30
0.0
 40
0.2
100
AcDbArc
 50
155.4659304342107
 51
225.0
  0
ARC
  5
23F
330
1F
100
AcDbEntity
  8
NoLayerName_001
  6
Continuous
 62
     3
370
    50
100
AcDbCircle
 10
228.0192992981208
 20
234.8113844731463
 30
0.0
 40
0.2
100
AcDbArc
 50
45.0
 51
114.5340695657891
  0
ARC
  5
240
330
1F
100
AcDbEntity
  8
NoLayerName_001
  6
Continuous
 62
     3
370
    50
100
AcDbCircle
 10
239.8949990205874
 20
234.8113844731463
 30
0.0
 40
0.2
100
AcDbArc
 50
65.46593043421083
 51
135.0
  0
ARC
  5
241
330
1F
100
AcDbEntity
  8
NoLayerName_001
  6
Continuous
 62
     3
370
    50
100
AcDbCircle
 10
246.9660668324527
 20
227.7403166612808
 30
0.0
 40
0.2
100
AcDbArc
 50
315.0
 51
24.53406956578774
  0
ARC
  5
242
330
1F
100
AcDbEntity
  8
NoLayerName_001
  6
Continuous
 62
     3
370
    50
100
AcDbCircle
 10
233.9071491593539
 20
221.8524668000481
 30
0.0
 40
11.80000000000001
100
AcDbArc
 50
153.273863272097
 51
207.0873388954706
  0
ARC
  5
243
330
1F
100
AcDbEntity
  8
NoLayerName_001
  6
Continuous
 62
     3
370
    50
100
AcDbCircle
 10
234.0071491593542
 20
221.8524668000481
 30
0.0
 40
11.8
100
AcDbArc
 50
63.2738632720971
 51
117.0873388954705
  0
ARC
  5
244
330
1F
100
AcDbEntity
  8
NoLayerName_001
  6
Continuous
 62
     3
370
    50
100
AcDbCircle
 10
233.9571491593541
 20
221.8024668000479
 30
0.0
 40
13.2
100
AcDbArc
 50
28.72170866977565
 51
61.27829133022436
  0
ARC
  5
245
330
1F
100
AcDbEntity
  8
NoLayerName_001
  6
Continuous
 62
     3
370
    50
100
AcDbCircle
 10
234.0071491593542
 20
221.7524668000477
 30
0.0
 40
11.80000000000001
100
AcDbArc
 50
333.2738632720969
 51
27.08733889547062
  0
LINE
  5
246
330
1F
100
AcDbEntity
  8
NoLayerName_001
  6
Continuous
 62
     3
370
    50
100
AcDbLine
 10
240.3004857578225
 20
233.3783935792968
 30
0.0
 11
239.3139216567106
 21
232.3918294781849
 31
0.0
  0
LINE
  5
247
330
1F
100
AcDbEntity
  8
NoLayerName_001
  6
Continuous
 62
     3
370
    50
100
AcDbLine
 10
244.5128478488215
 20
227.1255753087349
 30
0.0
 11
245.533075938603
 21
228.1458033985163
 31
0.0
  0
ARC
  5
248
330
1F
100
AcDbEntity
  8
NoLayerName_001
  6
Continuous
 62
     3
370
    50
100
AcDbCircle
 10
233.9571491593541
 20
221.8024668000479
 30
0.0
 40
13.2
100
AcDbArc
 50
118.7217086697756
 51
151.2782913302243
  0
LINE
  5
249
330
1F
100
AcDbEntity
  8
NoLayerName_001
  6
Continuous
 62
     3
370
    50
100
AcDbLine
 10
227.6138125608856
 20
233.3783935792968
 30
0.0
 11
228.6003766619975
 21
232.3918294781849
 31
0.0
  0
LINE
  5
24A
330
1F
100
AcDbEntity
  8
NoLayerName_001
  6
Continuous
 62
     3
370
    50
100
AcDbLine
 10
223.367786481217
 20
227.1592392974044
 30
0.0
 11
222.3812223801051
 21
228.1458033985163
 31
0.0
  0
ARC
  5
24B
330
1F
100
AcDbEntity
  8
NoLayerName_001
  6
Continuous
 62
     3
370
    50
100
AcDbCircle
 10
234.0071491593542
 20
221.7524668000477
 30
0.0
 40
11.8
100
AcDbArc
 50
242.9126611045295
 51
296.7261367279029
  0
LINE
  5
24C
330
1F
100
AcDbEntity
  8
NoLayerName_001
  6
Continuous
 62
     3
370
    50
100
AcDbLine
 10
240.3004857578225
 20
210.226540020799
 30
0.0
 11
239.3139216567106
 21
211.2131041219109
 31
0.0
  0
ARC
  5
24D
330
1F
100
AcDbEntity
  8
NoLayerName_001
  6
Continuous
 62
     3
370
    50
100
AcDbCircle
 10
233.9571491593541
 20
221.8024668000479
 30
0.0
 40
13.2
100
AcDbArc
 50
298.7217086697756
 51
331.2782913302244
  0
LINE
  5
24E
330
1F
100
AcDbEntity
  8
NoLayerName_001
  6
Continuous
 62
     3
370
    50
100
AcDbLine
 10
244.5128478488215
 20
216.4793582913609
 30
0.0
 11
245.533075938603
 21
215.4591302015795
 31
0.0
  0
LINE
  5
24F
330
1F
100
AcDbEntity
  8
NoLayerName_001
  6
Continuous
 62
     3
370
    50
100
AcDbLine
 10
227.6138125608856
 20
210.226540020799
 30
0.0
 11
228.6340406506671
 21
211.2467681105805
 31
0.0
  0
ARC
  5
250
330
1F
100
AcDbEntity
  8
NoLayerName_001
  6
Continuous
 62
     3
370
    50
100
AcDbCircle
 10
233.9571491593541
 20
221.8024668000479
 30
0.0
 40
13.2
100
AcDbArc
 50
208.7217086697756
 51
241.2782913302244
  0
LINE
  5
251
330
1F
100
AcDbEntity
  8
NoLayerName_001
  6
Continuous
 62
     3
370
    50
100
AcDbLine
 10
223.4014504698866
 20
216.4793582913609
 30
0.0
 11
222.3812223801051
 21
215.4591302015795
 31
0.0
  0
LINE
  5
252
330
1F
100
AcDbEntity
  8
NoLayerName_001
  6
Continuous
 62
     3
370
    50
100
AcDbLine
 10
230.5892618100062
 20
208.9359468819775
 30
0.0
 11
231.0892618100062
 21
210.3189225806678
 31
0.0
  0
LINE
  5
253
330
1F
100
AcDbEntity
  8
NoLayerName_001
  6
Continuous
 62
     3
370
    50
100
AcDbLine
 10
228.8153797056686
 20
209.0153259144314
 30
0.0
 11
228.3153797056686
 21
210.928107165582
 31
0.0
  0
CIRCLE
  5
254
330
1F
100
AcDbEntity
  8
NoLayerName_001
  6
Continuous
 62
     3
370
    50
100
AcDbCircle
 10
282.9571491593541
 20
221.8024668000479
 30
0.0
 40
15.6
  0
LINE
  5
255
330
1F
100
AcDbEntity
  8
NoLayerName_001
  6
Continuous
 62
     3
370
    50
100
AcDbLine
 10
277.2044756786343
 20
208.4130400825137
 30
0.0
 11
277.8122674416427
 21
209.0208318455221
 31
0.0
  0
LINE
  5
256
330
1F
100
AcDbEntity
  8
NoLayerName_001
  6
Continuous
 62
     3
370
    50
100
AcDbLine
 10
295.8179259016222
 20
216.5784432945946
 30
0.0
 11
296.3465758768886
 21
216.0497933193283
 31
0.0
  0
LINE
  5
257
330
1F
100
AcDbEntity
  8
NoLayerName_001
  6
Continuous
 62
     3
370
    50
100
AcDbLine
 10
288.7098226400738
 20
208.4130400825136
 30
0.0
 11
288.1020308770654
 21
209.020831845522
 31
0.0
  0
LINE
  5
258
330
1F
100
AcDbEntity
  8
NoLayerName_001
  6
Continuous
 62
     3
370
    50
100
AcDbLine
 10
288.1811726648078
 20
234.6632435423161
 30
0.0
 11
288.709822640074
 21
235.1918935175823
 31
0.0
  0
LINE
  5
259
330
1F
100
AcDbEntity
  8
NoLayerName_001
  6
Continuous
 62
     3
370
    50
100
AcDbLine
 10
295.8179259016222
 20
227.0264903055013
 30
0.0
 11
296.3465758768883
 21
227.5551402807675
 31
0.0
  0
LINE
  5
25A
330
1F
100
AcDbEntity
  8
NoLayerName_001
  6
Continuous
 62
     3
370
    50
100
AcDbLine
 10
277.7331256539003
 20
234.6632435423161
 30
0.0
 11
277.2044756786344
 21
235.1918935175821
 31
0.0
  0
LINE
  5
25B
330
1F
100
AcDbEntity
  8
NoLayerName_001
  6
Continuous
 62
     3
370
    50
100
AcDbLine
 10
277.7571491593542
 20
213.8024668000479
 30
0.0
 11
288.1571491593543
 21
213.8024668000479
 31
0.0
  0
LINE
  5
25C
330
1F
100
AcDbEntity
  8
NoLayerName_001
  6
Continuous
 62
     3
370
    50
100
AcDbLine
 10
277.7571491593542
 20
220.8024668000479
 30
0.0
 11
288.1571491593543
 21
220.8024668000479
 31
0.0
  0
LINE
  5
25D
330
1F
100
AcDbEntity
  8
NoLayerName_001
  6
Continuous
 62
     3
370
    50
100
AcDbLine
 10
277.7571491593542
 20
220.8024668000479
 30
0.0
 11
277.7571491593542
 21
213.8024668000479
 31
0.0
  0
LINE
  5
25E
330
1F
100
AcDbEntity
  8
NoLayerName_001
  6
Continuous
 62
     3
370
    50
100
AcDbLine
 10
279.7571491593542
 20
218.4024668000479
 30
0.0
 11
279.7571491593542
 21
216.2024668000479
 31
0.0
  0
LINE
  5
25F
330
1F
100
AcDbEntity
  8
NoLayerName_001
  6
Continuous
 62
     3
370
    50
100
AcDbLine
 10
286.1571491593539
 20
218.4024668000479
 30
0.0
 11
286.1571491593539
 21
216.2024668000479
 31
0.0
  0
LINE
  5
260
330
1F
100
AcDbEntity
  8
NoLayerName_001
  6
Continuous
 62
     3
370
    50
100
AcDbLine
 10
279.9571491593541
 20
224.8024668000479
 30
0.0
 11
285.9571491593541
 21
224.8024668000479
 31
0.0
  0
LINE
  5
261
330
1F
100
AcDbEntity
  8
NoLayerName_001
  6
Continuous
 62
     3
370
    50
100
AcDbLine
 10
288.1571491593539
 20
220.8024668000479
 30
0.0
 11
288.1571491593539
 21
213.8024668000479
 31
0.0
  0
LINE
  5
262
330
1F
100
AcDbEntity
  8
NoLayerName_001
  6
Continuous
 62
     3
370
    50
100
AcDbLine
 10
286.1571491593539
 20
218.4024668000479
 30
0.0
 11
279.7571491593542
 21
218.4024668000479
 31
0.0
  0
LINE
  5
263
330
1F
100
AcDbEntity
  8
NoLayerName_001
  6
Continuous
 62
     3
370
    50
100
AcDbLine
 10
286.1571491593539
 20
216.2024668000479
 30
0.0
 11
279.7571491593542
 21
216.2024668000479
 31
0.0
  0
ARC
  5
264
330
1F
100
AcDbEntity
  8
NoLayerName_001
  6
Continuous
 62
     3
370
    50
100
AcDbCircle
 10
288.8512439963113
 20
235.0504721613449
 30
0.0
 40
0.2
100
AcDbArc
 50
66.01551199434357
 51
135.0
  0
ARC
  5
265
330
1F
100
AcDbEntity
  8
NoLayerName_001
  6
Continuous
 62
     3
370
    50
100
AcDbCircle
 10
282.9571491593541
 20
221.8024668000479
 30
0.0
 40
14.7
100
AcDbArc
 50
23.98448800565551
 51
66.01551199434357
  0
ARC
  5
266
330
1F
100
AcDbEntity
  8
NoLayerName_001
  6
Continuous
 62
     3
370
    50
100
AcDbCircle
 10
296.2051545206512
 20
227.6965616370048
 30
0.0
 40
0.2
100
AcDbArc
 50
315.0
 51
23.98448800565546
  0
ARC
  5
267
330
1F
100
AcDbEntity
  8
NoLayerName_001
  6
Continuous
 62
     3
370
    50
100
AcDbCircle
 10
277.0630543223972
 20
235.0504721613451
 30
0.0
 40
0.2
100
AcDbArc
 50
45.0
 51
113.9844880056555
  0
ARC
  5
268
330
1F
100
AcDbEntity
  8
NoLayerName_001
  6
Continuous
 62
     3
370
    50
100
AcDbCircle
 10
282.9571491593541
 20
221.8024668000479
 30
0.0
 40
14.7
100
AcDbArc
 50
113.9844880056555
 51
156.0155119943436
  0
ARC
  5
269
330
1F
100
AcDbEntity
  8
NoLayerName_001
  6
Continuous
 62
     3
370
    50
100
AcDbCircle
 10
269.7091437980571
 20
227.6965616370051
 30
0.0
 40
0.2
100
AcDbArc
 50
156.0155119943436
 51
225.0
  0
ARC
  5
26A
330
1F
100
AcDbEntity
  8
NoLayerName_001
  6
Continuous
 62
     3
370
    50
100
AcDbCircle
 10
282.9571491593541
 20
221.8024668000479
 30
0.0
 40
14.7
100
AcDbArc
 50
203.9844880056555
 51
246.0155119943436
  0
ARC
  5
26B
330
1F
100
AcDbEntity
  8
NoLayerName_001
  6
Continuous
 62
     3
370
    50
100
AcDbCircle
 10
277.063054322397
 20
208.5544614387509
 30
0.0
 40
0.2
100
AcDbArc
 50
246.0155119943436
 51
315.0
  0
ARC
  5
26C
330
1F
100
AcDbEntity
  8
NoLayerName_001
  6
Continuous
 62
     3
370
    50
100
AcDbCircle
 10
288.8512439963111
 20
208.5544614387508
 30
0.0
 40
0.2
100
AcDbArc
 50
225.0
 51
293.9844880056555
  0
ARC
  5
26D
330
1F
100
AcDbEntity
  8
NoLayerName_001
  6
Continuous
 62
     3
370
    50
100
AcDbCircle
 10
282.9571491593541
 20
221.8024668000479
 30
0.0
 40
14.7
100
AcDbArc
 50
293.9844880056555
 51
336.0155119943436
  0
ARC
  5
26E
330
1F
100
AcDbEntity
  8
NoLayerName_001
  6
Continuous
 62
     3
370
    50
100
AcDbCircle
 10
296.2051545206512
 20
215.9083719630909
 30
0.0
 40
0.2
100
AcDbArc
 50
336.0155119943436
 51
45.0
  0
LINE
  5
26F
330
1F
100
AcDbEntity
  8
NoLayerName_001
  6
Continuous
 62
     7
370
    50
100
AcDbLine
 10
283.257149159354
 20
237.1995444448479
 30
0.0
 11
283.257149159354
 21
235.0990829109237
 31
0.0
  0
LINE
  5
270
330
1F
100
AcDbEntity
  8
NoLayerName_001
  6
Continuous
 62
     7
370
    50
100
AcDbLine
 10
281.4738155925625
 20
237.1308627216579
 30
0.0
 11
281.6488156847131
 21
235.0379593681065
 31
0.0
  0
LINE
  5
271
330
1F
100
AcDbEntity
  8
NoLayerName_001
  6
Continuous
 62
     7
370
    50
100
AcDbLine
 10
267.5600715145541
 20
222.1024668000479
 30
0.0
 11
269.6605330484783
 21
222.1024668000479
 31
0.0
  0
LINE
  5
272
330
1F
100
AcDbEntity
  8
NoLayerName_001
  6
Continuous
 62
     7
370
    50
100
AcDbLine
 10
267.6287532377442
 20
220.3191332332563
 30
0.0
 11
269.7216565912955
 21
220.4941333254068
 31
0.0
  0
LINE
  5
273
330
1F
100
AcDbEntity
  8
NoLayerName_001
  6
Continuous
 62
     7
370
    50
100
AcDbLine
 10
282.6571491593541
 20
206.4053891552479
 30
0.0
 11
282.6571491593541
 21
208.5058506891722
 31
0.0
  0
LINE
  5
274
330
1F
100
AcDbEntity
  8
NoLayerName_001
  6
Continuous
 62
     7
370
    50
100
AcDbLine
 10
284.4404827261458
 20
206.4740708784379
 30
0.0
 11
284.2654826339952
 21
208.5669742319893
 31
0.0
  0
LINE
  5
275
330
1F
100
AcDbEntity
  8
NoLayerName_001
  6
Continuous
 62
     7
370
    50
100
AcDbLine
 10
298.3542268041541
 20
221.502466800048
 30
0.0
 11
296.2537652702298
 21
221.502466800048
 31
0.0
  0
LINE
  5
276
330
1F
100
AcDbEntity
  8
NoLayerName_001
  6
Continuous
 62
     7
370
    50
100
AcDbLine
 10
298.2855450809641
 20
223.2858003668396
 30
0.0
 11
296.1926417274126
 21
223.110800274689
 31
0.0
  0
ARC
  5
277
330
1F
100
AcDbEntity
  8
NoLayerName_001
  6
Continuous
 62
     7
370
    50
100
AcDbCircle
 10
282.9571491593541
 20
221.8024668000479
 30
0.0
 40
15.4
100
AcDbArc
 50
358.8837778441415
 51
5.527319489113202
  0
ARC
  5
278
330
1F
100
AcDbEntity
  8
NoLayerName_001
  6
Continuous
 62
     7
370
    50
100
AcDbCircle
 10
282.9571491593541
 20
221.8024668000479
 30
0.0
 40
15.4
100
AcDbArc
 50
88.88377784414162
 51
95.52731948911182
  0
ARC
  5
279
330
1F
100
AcDbEntity
  8
NoLayerName_001
  6
Continuous
 62
     7
370
    50
100
AcDbCircle
 10
282.9571491593541
 20
221.8024668000479
 30
0.0
 40
15.4
100
AcDbArc
 50
178.8837778441415
 51
185.5273194891119
  0
ARC
  5
27A
330
1F
100
AcDbEntity
  8
NoLayerName_001
  6
Continuous
 62
     7
370
    50
100
AcDbCircle
 10
282.9571491593541
 20
221.8024668000479
 30
0.0
 40
15.4
100
AcDbArc
 50
268.8837778441415
 51
275.5273194891119
  0
LINE
  5
27B
330
1F
100
AcDbEntity
  8
NoLayerName_001
  6
Continuous
 62
     3
370
    50
100
AcDbLine
 10
279.9571491593541
 20
227.502466800048
 30
0.0
 11
285.9571491593541
 21
227.502466800048
 31
0.0
  0
LINE
  5
27C
330
1F
100
AcDbEntity
  8
NoLayerName_001
  6
Continuous
 62
     3
370
    50
100
AcDbLine
 10
279.9571491593541
 20
227.502466800048
 30
0.0
 11
279.9571491593541
 21
224.802466800048
 31
0.0
  0
LINE
  5
27D
330
1F
100
AcDbEntity
  8
NoLayerName_001
  6
Continuous
 62
     3
370
    50
100
AcDbLine
 10
285.9571491593541
 20
227.502466800048
 30
0.0
 11
285.9571491593541
 21
224.802466800048
 31
0.0
  0
LINE
  5
27E
330
1F
100
AcDbEntity
  8
NoLayerName_001
  6
Continuous
 62
     3
370
    50
100
AcDbLine
 10
279.9571491593541
 20
226.502466800048
 30
0.0
 11
285.9571491593541
 21
226.502466800048
 31
0.0
  0
ARC
  5
27F
330
1F
100
AcDbEntity
  8
NoLayerName_001
  6
Continuous
 62
     3
370
    50
100
AcDbCircle
 10
282.9571491593541
 20
221.8024668000479
 30
0.0
 40
13.3
100
AcDbArc
 50
161.586759631728
 51
198.4132403682721
  0
LINE
  5
280
330
1F
100
AcDbEntity
  8
NoLayerName_001
  6
Continuous
 62
     3
370
    50
100
AcDbLine
 10
270.0963724170859
 20
227.0264903055017
 30
0.0
 11
269.5677224418199
 21
227.5551402807678
 31
0.0
  0
ARC
  5
281
330
1F
100
AcDbEntity
  8
NoLayerName_001
  6
Continuous
 62
     3
370
    50
100
AcDbCircle
 10
269.3892656358992
 20
226.3193835243152
 30
0.0
 40
1.0
100
AcDbArc
 50
341.5867596317279
 51
45.0
  0
ARC
  5
282
330
1F
100
AcDbEntity
  8
NoLayerName_001
  6
Continuous
 62
     3
370
    50
100
AcDbCircle
 10
282.9571491593541
 20
221.8024668000479
 30
0.0
 40
13.3
100
AcDbArc
 50
71.58675963172809
 51
108.4132403682719
  0
ARC
  5
283
330
1F
100
AcDbEntity
  8
NoLayerName_001
  6
Continuous
 62
     3
370
    50
100
AcDbCircle
 10
278.440232435087
 20
235.3703503235026
 30
0.0
 40
1.0
100
AcDbArc
 50
225.0
 51
288.4132403682719
  0
ARC
  5
284
330
1F
100
AcDbEntity
  8
NoLayerName_001
  6
Continuous
 62
     3
370
    50
100
AcDbCircle
 10
287.4740658836211
 20
235.3703503235026
 30
0.0
 40
1.0
100
AcDbArc
 50
251.5867596317281
 51
315.0
  0
ARC
  5
285
330
1F
100
AcDbEntity
  8
NoLayerName_001
  6
Continuous
 62
     3
370
    50
100
AcDbCircle
 10
282.9571491593541
 20
221.8024668000479
 30
0.0
 40
13.3
100
AcDbArc
 50
341.5867596317299
 51
18.41324036827043
  0
ARC
  5
286
330
1F
100
AcDbEntity
  8
NoLayerName_001
  6
Continuous
 62
     3
370
    50
100
AcDbCircle
 10
296.5250326828089
 20
226.3193835243148
 30
0.0
 40
1.0
100
AcDbArc
 50
135.0
 51
198.4132403682705
  0
ARC
  5
287
330
1F
100
AcDbEntity
  8
NoLayerName_001
  6
Continuous
 62
     3
370
    50
100
AcDbCircle
 10
296.5250326828089
 20
217.2855500757811
 30
0.0
 40
1.0
100
AcDbArc
 50
161.5867596317299
 51
225.0
  0
ARC
  5
288
330
1F
100
AcDbEntity
  8
NoLayerName_001
  6
Continuous
 62
     3
370
    50
100
AcDbCircle
 10
287.4740658836211
 20
208.2345832765932
 30
0.0
 40
1.0
100
AcDbArc
 50
45.00000000000001
 51
108.4132403682719
  0
ARC
  5
289
330
1F
100
AcDbEntity
  8
NoLayerName_001
  6
Continuous
 62
     3
370
    50
100
AcDbCircle
 10
282.9571491593541
 20
221.8024668000479
 30
0.0
 40
13.3
100
AcDbArc
 50
251.5867596317281
 51
288.4132403682719
  0
ARC
  5
28A
330
1F
100
AcDbEntity
  8
NoLayerName_001
  6
Continuous
 62
     3
370
    50
100
AcDbCircle
 10
278.440232435087
 20
208.2345832765932
 30
0.0
 40
1.0
100
AcDbArc
 50
71.58675963172811
 51
135.0
  0
ARC
  5
28B
330
1F
100
AcDbEntity
  8
NoLayerName_001
  6
Continuous
 62
     3
370
    50
100
AcDbCircle
 10
282.9571491593541
 20
221.8024668000479
 30
0.0
 40
14.5
100
AcDbArc
 50
24.53406956578775
 51
65.46593043421086
  0
LINE
  5
28C
330
1F
100
AcDbEntity
  8
NoLayerName_001
  6
Continuous
 62
     3
370
    50
100
AcDbLine
 10
296.1074881886901
 20
227.5988953050435
 30
0.0
 11
295.6765045453852
 21
227.1679116617387
 31
0.0
  0
LINE
  5
28D
330
1F
100
AcDbEntity
  8
NoLayerName_001
  6
Continuous
 62
     3
370
    50
100
AcDbLine
 10
288.75357766435
 20
234.9528058293836
 30
0.0
 11
288.3225940210451
 21
234.5218221860788
 31
0.0
  0
ARC
  5
28E
330
1F
100
AcDbEntity
  8
NoLayerName_001
  6
Continuous
 62
     3
370
    50
100
AcDbCircle
 10
287.4740658836211
 20
235.3703503235026
 30
0.0
 40
1.2
100
AcDbArc
 50
251.5867596317281
 51
315.0
  0
ARC
  5
28F
330
1F
100
AcDbEntity
  8
NoLayerName_001
  6
Continuous
 62
     3
370
    50
100
AcDbCircle
 10
296.5250326828089
 20
226.3193835243148
 30
0.0
 40
1.2
100
AcDbArc
 50
135.0
 51
198.4132403682705
  0
ARC
  5
290
330
1F
100
AcDbEntity
  8
NoLayerName_001
  6
Continuous
 62
     3
370
    50
100
AcDbCircle
 10
282.9571491593541
 20
221.8024668000479
 30
0.0
 40
13.1
100
AcDbArc
 50
341.5867596317299
 51
18.41324036827043
  0
ARC
  5
291
330
1F
100
AcDbEntity
  8
NoLayerName_001
  6
Continuous
 62
     3
370
    50
100
AcDbCircle
 10
282.9571491593541
 20
221.8024668000479
 30
0.0
 40
13.1
100
AcDbArc
 50
71.58675963172809
 51
108.4132403682719
  0
ARC
  5
292
330
1F
100
AcDbEntity
  8
NoLayerName_001
  6
Continuous
 62
     3
370
    50
100
AcDbCircle
 10
278.440232435087
 20
235.3703503235026
 30
0.0
 40
1.2
100
AcDbArc
 50
225.0
 51
288.4132403682719
  0
ARC
  5
293
330
1F
100
AcDbEntity
  8
NoLayerName_001
  6
Continuous
 62
     3
370
    50
100
AcDbCircle
 10
282.9571491593541
 20
221.8024668000479
 30
0.0
 40
14.5
100
AcDbArc
 50
114.5340695657892
 51
155.4659304342108
  0
LINE
  5
294
330
1F
100
AcDbEntity
  8
NoLayerName_001
  6
Continuous
 62
     3
370
    50
100
AcDbLine
 10
277.1607206543582
 20
234.9528058293836
 30
0.0
 11
277.591704297663
 21
234.5218221860788
 31
0.0
  0
LINE
  5
295
330
1F
100
AcDbEntity
  8
NoLayerName_001
  6
Continuous
 62
     3
370
    50
100
AcDbLine
 10
269.8068101300185
 20
227.5988953050439
 30
0.0
 11
270.2377937733233
 21
227.167911661739
 31
0.0
  0
ARC
  5
296
330
1F
100
AcDbEntity
  8
NoLayerName_001
  6
Continuous
 62
     3
370
    50
100
AcDbCircle
 10
269.3892656358992
 20
226.3193835243152
 30
0.0
 40
1.2
100
AcDbArc
 50
341.5867596317279
 51
45.0
  0
ARC
  5
297
330
1F
100
AcDbEntity
  8
NoLayerName_001
  6
Continuous
 62
     3
370
    50
100
AcDbCircle
 10
282.9571491593541
 20
221.8024668000479
 30
0.0
 40
13.1
100
AcDbArc
 50
161.586759631728
 51
198.2111247011348
  0
ARC
  5
298
330
1F
100
AcDbEntity
  8
NoLayerName_001
  6
Continuous
 62
     3
370
    50
100
AcDbCircle
 10
269.7091437980571
 20
215.9083719630908
 30
0.0
 40
0.2
100
AcDbArc
 50
135.0
 51
203.9844880056564
  0
LINE
  5
299
330
1F
100
AcDbEntity
  8
NoLayerName_001
  6
Continuous
 62
     3
370
    50
100
AcDbLine
 10
270.0963724170859
 20
216.5784432945941
 30
0.0
 11
269.5677224418199
 21
216.049793319328
 31
0.0
  0
ARC
  5
29A
330
1F
100
AcDbEntity
  8
NoLayerName_001
  6
Continuous
 62
     3
370
    50
100
AcDbCircle
 10
269.3892656358992
 20
217.2855500757806
 30
0.0
 40
1.0
100
AcDbArc
 50
315.0
 51
18.41324036827208
  0
ARC
  5
29B
330
1F
100
AcDbEntity
  8
NoLayerName_001
  6
Continuous
 62
     3
370
    50
100
AcDbCircle
 10
269.3892656358992
 20
217.2855500757806
 30
0.0
 40
1.2
100
AcDbArc
 50
315.0
 51
18.41324036827208
  0
LINE
  5
29C
330
1F
100
AcDbEntity
  8
NoLayerName_001
  6
Continuous
 62
     3
370
    50
100
AcDbLine
 10
269.8068101300185
 20
216.006038295052
 30
0.0
 11
270.2377937733233
 21
216.4370219383568
 31
0.0
  0
ARC
  5
29D
330
1F
100
AcDbEntity
  8
NoLayerName_001
  6
Continuous
 62
     3
370
    50
100
AcDbCircle
 10
282.9571491593541
 20
221.8024668000479
 30
0.0
 40
14.5
100
AcDbArc
 50
204.5340695657892
 51
245.4659304342109
  0
LINE
  5
29E
330
1F
100
AcDbEntity
  8
NoLayerName_001
  6
Continuous
 62
     3
370
    50
100
AcDbLine
 10
277.1607206543582
 20
208.6521277707122
 30
0.0
 11
277.6708460854054
 21
209.1622532017595
 31
0.0
  0
ARC
  5
29F
330
1F
100
AcDbEntity
  8
NoLayerName_001
  6
Continuous
 62
     3
370
    50
100
AcDbCircle
 10
278.440232435087
 20
208.2345832765932
 30
0.0
 40
1.2
100
AcDbArc
 50
127.1289669418648
 51
135.0
  0
ARC
  5
2A0
330
1F
100
AcDbEntity
  8
NoLayerName_001
  6
Continuous
 62
     3
370
    50
100
AcDbCircle
 10
282.9571491593541
 20
221.8024668000479
 30
0.0
 40
13.1
100
AcDbArc
 50
255.5024931921641
 51
288.4132403682719
  0
ARC
  5
2A1
330
1F
100
AcDbEntity
  8
NoLayerName_001
  6
Continuous
 62
     3
370
    50
100
AcDbCircle
 10
287.4740658836211
 20
208.2345832765932
 30
0.0
 40
1.2
100
AcDbArc
 50
45.00000000000001
 51
108.4132403682719
  0
LINE
  5
2A2
330
1F
100
AcDbEntity
  8
NoLayerName_001
  6
Continuous
 62
     3
370
    50
100
AcDbLine
 10
288.7535776643497
 20
208.6521277707121
 30
0.0
 11
288.2434522333026
 21
209.1622532017593
 31
0.0
  0
ARC
  5
2A3
330
1F
100
AcDbEntity
  8
NoLayerName_001
  6
Continuous
 62
     3
370
    50
100
AcDbCircle
 10
282.9571491593541
 20
221.8024668000479
 30
0.0
 40
14.5
100
AcDbArc
 50
294.5340695657887
 51
335.4659304342127
  0
LINE
  5
2A4
330
1F
100
AcDbEntity
  8
NoLayerName_001
  6
Continuous
 62
     3
370
    50
100
AcDbLine
 10
296.1074881886901
 20
216.0060382950523
 30
0.0
 11
295.6765045453852
 21
216.4370219383572
 31
0.0
  0
ARC
  5
2A5
330
1F
100
AcDbEntity
  8
NoLayerName_001
  6
Continuous
 62
     3
370
    50
100
AcDbCircle
 10
296.5250326828089
 20
217.2855500757811
 30
0.0
 40
1.2
100
AcDbArc
 50
161.5867596317299
 51
225.0
  0
ARC
  5
2A6
330
1F
100
AcDbEntity
  8
NoLayerName_001
  6
Continuous
 62
     3
370
    50
100
AcDbCircle
 10
295.9660668324526
 20
215.8646169388151
 30
0.0
 40
0.2
100
AcDbArc
 50
335.4659304342127
 51
45.0
  0
ARC
  5
2A7
330
1F
100
AcDbEntity
  8
NoLayerName_001
  6
Continuous
 62
     3
370
    50
100
AcDbCircle
 10
288.8949990205872
 20
208.7935491269494
 30
0.0
 40
0.2
100
AcDbArc
 50
225.0
 51
294.5340695657887
  0
ARC
  5
2A8
330
1F
100
AcDbEntity
  8
NoLayerName_001
  6
Continuous
 62
     3
370
    50
100
AcDbCircle
 10
277.0192992981209
 20
208.7935491269495
 30
0.0
 40
0.2
100
AcDbArc
 50
245.4659304342109
 51
315.0
  0
ARC
  5
2A9
330
1F
100
AcDbEntity
  8
NoLayerName_001
  6
Continuous
 62
     3
370
    50
100
AcDbCircle
 10
269.9482314862556
 20
215.8646169388147
 30
0.0
 40
0.2
100
AcDbArc
 50
135.0
 51
204.5340695657892
  0
ARC
  5
2AA
330
1F
100
AcDbEntity
  8
NoLayerName_001
  6
Continuous
 62
     3
370
    50
100
AcDbCircle
 10
269.9482314862556
 20
227.7403166612812
 30
0.0
 40
0.2
100
AcDbArc
 50
155.4659304342107
 51
225.0
  0
ARC
  5
2AB
330
1F
100
AcDbEntity
  8
NoLayerName_001
  6
Continuous
 62
     3
370
    50
100
AcDbCircle
 10
277.0192992981209
 20
234.8113844731463
 30
0.0
 40
0.2
100
AcDbArc
 50
45.0
 51
114.5340695657891
  0
ARC
  5
2AC
330
1F
100
AcDbEntity
  8
NoLayerName_001
  6
Continuous
 62
     3
370
    50
100
AcDbCircle
 10
288.8949990205872
 20
234.8113844731463
 30
0.0
 40
0.2
100
AcDbArc
 50
65.46593043421083
 51
135.0
  0
ARC
  5
2AD
330
1F
100
AcDbEntity
  8
NoLayerName_001
  6
Continuous
 62
     3
370
    50
100
AcDbCircle
 10
295.9660668324526
 20
227.7403166612808
 30
0.0
 40
0.2
100
AcDbArc
 50
315.0
 51
24.53406956578774
  0
ARC
  5
2AE
330
1F
100
AcDbEntity
  8
NoLayerName_001
  6
Continuous
 62
     3
370
    50
100
AcDbCircle
 10
282.9071491593539
 20
221.8524668000481
 30
0.0
 40
11.80000000000001
100
AcDbArc
 50
153.273863272097
 51
207.0873388954706
  0
ARC
  5
2AF
330
1F
100
AcDbEntity
  8
NoLayerName_001
  6
Continuous
 62
     3
370
    50
100
AcDbCircle
 10
283.0071491593542
 20
221.8524668000481
 30
0.0
 40
11.8
100
AcDbArc
 50
63.2738632720971
 51
117.0873388954705
  0
ARC
  5
2B0
330
1F
100
AcDbEntity
  8
NoLayerName_001
  6
Continuous
 62
     3
370
    50
100
AcDbCircle
 10
282.9571491593541
 20
221.8024668000479
 30
0.0
 40
13.2
100
AcDbArc
 50
28.72170866977565
 51
61.27829133022436
  0
ARC
  5
2B1
330
1F
100
AcDbEntity
  8
NoLayerName_001
  6
Continuous
 62
     3
370
    50
100
AcDbCircle
 10
283.0071491593542
 20
221.7524668000477
 30
0.0
 40
11.80000000000001
100
AcDbArc
 50
333.2738632720969
 51
27.08733889547062
  0
LINE
  5
2B2
330
1F
100
AcDbEntity
  8
NoLayerName_001
  6
Continuous
 62
     3
370
    50
100
AcDbLine
 10
289.3004857578224
 20
233.3783935792968
 30
0.0
 11
288.3139216567105
 21
232.3918294781849
 31
0.0
  0
LINE
  5
2B3
330
1F
100
AcDbEntity
  8
NoLayerName_001
  6
Continuous
 62
     3
370
    50
100
AcDbLine
 10
293.5128478488217
 20
227.1255753087349
 30
0.0
 11
294.5330759386031
 21
228.1458033985163
 31
0.0
  0
ARC
  5
2B4
330
1F
100
AcDbEntity
  8
NoLayerName_001
  6
Continuous
 62
     3
370
    50
100
AcDbCircle
 10
282.9571491593541
 20
221.8024668000479
 30
0.0
 40
13.2
100
AcDbArc
 50
118.7217086697756
 51
151.2782913302243
  0
LINE
  5
2B5
330
1F
100
AcDbEntity
  8
NoLayerName_001
  6
Continuous
 62
     3
370
    50
100
AcDbLine
 10
276.6138125608857
 20
233.3783935792968
 30
0.0
 11
277.6003766619976
 21
232.3918294781849
 31
0.0
  0
LINE
  5
2B6
330
1F
100
AcDbEntity
  8
NoLayerName_001
  6
Continuous
 62
     3
370
    50
100
AcDbLine
 10
272.3677864812169
 20
227.1592392974044
 30
0.0
 11
271.381222380105
 21
228.1458033985163
 31
0.0
  0
ARC
  5
2B7
330
1F
100
AcDbEntity
  8
NoLayerName_001
  6
Continuous
 62
     3
370
    50
100
AcDbCircle
 10
283.0071491593542
 20
221.7524668000477
 30
0.0
 40
11.8
100
AcDbArc
 50
242.9126611045295
 51
296.7261367279029
  0
LINE
  5
2B8
330
1F
100
AcDbEntity
  8
NoLayerName_001
  6
Continuous
 62
     3
370
    50
100
AcDbLine
 10
289.3004857578224
 20
210.226540020799
 30
0.0
 11
288.3139216567105
 21
211.2131041219109
 31
0.0
  0
ARC
  5
2B9
330
1F
100
AcDbEntity
  8
NoLayerName_001
  6
Continuous
 62
     3
370
    50
100
AcDbCircle
 10
282.9571491593541
 20
221.8024668000479
 30
0.0
 40
13.2
100
AcDbArc
 50
298.7217086697756
 51
331.2782913302244
  0
LINE
  5
2BA
330
1F
100
AcDbEntity
  8
NoLayerName_001
  6
Continuous
 62
     3
370
    50
100
AcDbLine
 10
293.5128478488217
 20
216.4793582913609
 30
0.0
 11
294.5330759386031
 21
215.4591302015795
 31
0.0
  0
LINE
  5
2BB
330
1F
100
AcDbEntity
  8
NoLayerName_001
  6
Continuous
 62
     3
370
    50
100
AcDbLine
 10
276.6138125608857
 20
210.226540020799
 30
0.0
 11
277.6340406506672
 21
211.2467681105805
 31
0.0
  0
ARC
  5
2BC
330
1F
100
AcDbEntity
  8
NoLayerName_001
  6
Continuous
 62
     3
370
    50
100
AcDbCircle
 10
282.9571491593541
 20
221.8024668000479
 30
0.0
 40
13.2
100
AcDbArc
 50
208.7217086697756
 51
241.2782913302244
  0
LINE
  5
2BD
330
1F
100
AcDbEntity
  8
NoLayerName_001
  6
Continuous
 62
     3
370
    50
100
AcDbLine
 10
272.4014504698865
 20
216.4793582913609
 30
0.0
 11
271.381222380105
 21
215.4591302015795
 31
0.0
  0
LINE
  5
2BE
330
1F
100
AcDbEntity
  8
NoLayerName_001
  6
Continuous
 62
     3
370
    50
100
AcDbLine
 10
279.5892618100063
 20
208.9359468819775
 30
0.0
 11
280.0892618100063
 21
210.3189225806678
 31
0.0
  0
LINE
  5
2BF
330
1F
100
AcDbEntity
  8
NoLayerName_001
  6
Continuous
 62
     3
370
    50
100
AcDbLine
 10
277.8153797056687
 20
209.0153259144314
 30
0.0
 11
277.3153797056687
 21
210.928107165582
 31
0.0
  0
LINE
  5
2C0
330
1F
100
AcDbEntity
  8
NoLayerName_001
  6
Continuous
 62
     3
370
    50
100
AcDbLine
 10
203.6107025499471
 20
231.2560201906413
 30
0.0
 11
202.2107025499471
 21
232.6560201906413
 31
0.0
  0
LINE
  5
2C1
330
1F
100
AcDbEntity
  8
NoLayerName_001
  6
Continuous
 62
     3
370
    50
100
AcDbLine
 10
202.9035957687605
 20
230.5489134094547
 30
0.0
 11
201.5035957687605
 21
231.9489134094547
 31
0.0
  0
ARC
  5
2C2
330
1F
100
AcDbEntity
  8
NoLayerName_001
  6
Continuous
 62
     3
370
    50
100
AcDbCircle
 10
204.6571491593539
 20
232.3024668000479
 30
0.0
 40
2.500000000000016
100
AcDbArc
 50
315.0
 51
44.99999999999999
  0
ARC
  5
2C3
330
1F
100
AcDbEntity
  8
NoLayerName_001
  6
Continuous
 62
     3
370
    50
100
AcDbCircle
 10
203.2571491593538
 20
233.7024668000479
 30
0.0
 40
1.500000000000016
100
AcDbArc
 50
45.0
 51
225.0
  0
ARC
  5
2C4
330
1F
100
AcDbEntity
  8
NoLayerName_001
  6
Continuous
 62
     3
370
    50
100
AcDbCircle
 10
204.6571491593539
 20
232.3024668000479
 30
0.0
 40
2.500000000000016
100
AcDbArc
 50
225.0
 51
315.0
  0
ARC
  5
2C5
330
1F
100
AcDbEntity
  8
NoLayerName_001
  6
Continuous
 62
     3
370
    50
100
AcDbCircle
 10
204.6571491593539
 20
232.3024668000479
 30
0.0
 40
1.500000000000016
100
AcDbArc
 50
225.0
 51
315.0
  0
ARC
  5
2C6
330
1F
100
AcDbEntity
  8
NoLayerName_001
  6
Continuous
 62
     3
370
    50
100
AcDbCircle
 10
204.6571491593539
 20
232.3024668000479
 30
0.0
 40
1.500000000000016
100
AcDbArc
 50
315.0
 51
44.99999999999999
  0
LINE
  5
2C7
330
1F
100
AcDbEntity
  8
NoLayerName_001
  6
Continuous
 62
     3
370
    50
100
AcDbLine
 10
205.0107025499472
 20
235.4560201906413
 30
0.0
 11
206.4107025499473
 21
234.0560201906413
 31
0.0
  0
LINE
  5
2C8
330
1F
100
AcDbEntity
  8
NoLayerName_001
  6
Continuous
 62
     3
370
    50
100
AcDbLine
 10
204.3035957687605
 20
234.7489134094548
 30
0.0
 11
205.7035957687606
 21
233.3489134094547
 31
0.0
  0
ARC
  5
2C9
330
1F
100
AcDbEntity
  8
NoLayerName_001
  6
Continuous
 62
     3
370
    50
100
AcDbCircle
 10
203.2571491593538
 20
233.7024668000479
 30
0.0
 40
2.500000000000016
100
AcDbArc
 50
45.0
 51
225.0
  0
ARC
  5
2CA
330
1F
100
AcDbEntity
  8
NoLayerName_001
  6
Continuous
 62
     3
370
    50
100
AcDbCircle
 10
264.6571491593543
 20
233.7024668000479
 30
0.0
 40
1.500000000000016
100
AcDbArc
 50
315.0
 51
134.9999999999999
  0
LINE
  5
2CB
330
1F
100
AcDbEntity
  8
NoLayerName_001
  6
Continuous
 62
     3
370
    50
100
AcDbLine
 10
264.303595768761
 20
231.2560201906413
 30
0.0
 11
265.703595768761
 21
232.6560201906413
 31
0.0
  0
LINE
  5
2CC
330
1F
100
AcDbEntity
  8
NoLayerName_001
  6
Continuous
 62
     3
370
    50
100
AcDbLine
 10
265.0107025499477
 20
230.5489134094547
 30
0.0
 11
266.4107025499476
 21
231.9489134094547
 31
0.0
  0
ARC
  5
2CD
330
1F
100
AcDbEntity
  8
NoLayerName_001
  6
Continuous
 62
     3
370
    50
100
AcDbCircle
 10
263.2571491593542
 20
232.3024668000479
 30
0.0
 40
2.500000000000016
100
AcDbArc
 50
225.0
 51
315.0
  0
ARC
  5
2CE
330
1F
100
AcDbEntity
  8
NoLayerName_001
  6
Continuous
 62
     3
370
    50
100
AcDbCircle
 10
263.2571491593542
 20
232.3024668000479
 30
0.0
 40
1.500000000000016
100
AcDbArc
 50
225.0
 51
315.0
  0
ARC
  5
2CF
330
1F
100
AcDbEntity
  8
NoLayerName_001
  6
Continuous
 62
     3
370
    50
100
AcDbCircle
 10
263.2571491593542
 20
232.3024668000479
 30
0.0
 40
1.500000000000016
100
AcDbArc
 50
135.0
 51
225.0
  0
ARC
  5
2D0
330
1F
100
AcDbEntity
  8
NoLayerName_001
  6
Continuous
 62
     3
370
    50
100
AcDbCircle
 10
263.2571491593542
 20
232.3024668000479
 30
0.0
 40
2.500000000000016
100
AcDbArc
 50
135.0
 51
225.0
  0
LINE
  5
2D1
330
1F
100
AcDbEntity
  8
NoLayerName_001
  6
Continuous
 62
     3
370
    50
100
AcDbLine
 10
262.9035957687609
 20
235.4560201906413
 30
0.0
 11
261.5035957687608
 21
234.0560201906413
 31
0.0
  0
LINE
  5
2D2
330
1F
100
AcDbEntity
  8
NoLayerName_001
  6
Continuous
 62
     3
370
    50
100
AcDbLine
 10
263.6107025499476
 20
234.7489134094548
 30
0.0
 11
262.2107025499475
 21
233.3489134094547
 31
0.0
  0
ARC
  5
2D3
330
1F
100
AcDbEntity
  8
NoLayerName_001
  6
Continuous
 62
     3
370
    50
100
AcDbCircle
 10
264.6571491593543
 20
233.7024668000479
 30
0.0
 40
2.500000000000016
100
AcDbArc
 50
315.0
 51
134.9999999999999
  0
LINE
  5
2D4
330
1F
100
AcDbEntity
  8
NoLayerName_002
  6
CENTER
 62
    30
370
    25
100
AcDbLine
 10
328.6175926507586
 20
372.0192009715791
 30
0.0
 11
140.4222208032914
 21
372.0192009715791
 31
0.0
  0
LINE
  5
2D5
330
1F
100
AcDbEntity
  8
NoLayerName_002
  6
Continuous
 62
   110
370
    50
100
AcDbLine
 10
259.257149159354
 20
316.7192009715791
 30
0.0
 11
259.257149159354
 21
317.4192009715791
 31
0.0
  0
LINE
  5
2D6
330
1F
100
AcDbEntity
  8
NoLayerName_002
  6
Continuous
 62
   110
370
    50
100
AcDbLine
 10
256.1571491593541
 20
316.7192009715791
 30
0.0
 11
256.1571491593541
 21
317.4192009715791
 31
0.0
  0
LINE
  5
2D7
330
1F
100
AcDbEntity
  8
NoLayerName_002
  6
Continuous
 62
   110
370
    50
100
AcDbLine
 10
208.6571491593541
 20
316.7192009715791
 30
0.0
 11
208.6571491593541
 21
317.4192009715791
 31
0.0
  0
LINE
  5
2D8
330
1F
100
AcDbEntity
  8
NoLayerName_002
  6
Continuous
 62
   110
370
    50
100
AcDbLine
 10
211.757149159354
 20
316.7192009715791
 30
0.0
 11
211.757149159354
 21
317.4192009715791
 31
0.0
  0
LINE
  5
2D9
330
1F
100
AcDbEntity
  8
NoLayerName_002
  6
Continuous
 62
   110
370
    50
100
AcDbLine
 10
208.6571491593541
 20
427.3192009715791
 30
0.0
 11
208.6571491593541
 21
426.6192009715791
 31
0.0
  0
LINE
  5
2DA
330
1F
100
AcDbEntity
  8
NoLayerName_002
  6
Continuous
 62
   110
370
    50
100
AcDbLine
 10
211.757149159354
 20
427.3192009715791
 30
0.0
 11
211.757149159354
 21
426.6192009715791
 31
0.0
  0
LINE
  5
2DB
330
1F
100
AcDbEntity
  8
NoLayerName_002
  6
Continuous
 62
   110
370
    50
100
AcDbLine
 10
256.1571491593541
 20
427.3192009715791
 30
0.0
 11
256.1571491593541
 21
426.6192009715791
 31
0.0
  0
LINE
  5
2DC
330
1F
100
AcDbEntity
  8
NoLayerName_002
  6
Continuous
 62
   110
370
    50
100
AcDbLine
 10
259.257149159354
 20
427.3192009715791
 30
0.0
 11
259.257149159354
 21
426.6192009715791
 31
0.0
  0
LINE
  5
2DD
330
1F
100
AcDbEntity
  8
NoLayerName_003
  6
Continuous
 62
     3
370
    50
100
AcDbLine
 10
324.2071491593541
 20
205.0024668000479
 30
0.0
 11
233.9571491593541
 21
205.0024668000479
 31
0.0
  0
LINE
  5
2DE
330
1F
100
AcDbEntity
  8
NoLayerName_003
  6
Continuous
 62
     3
370
    50
100
AcDbLine
 10
143.7071491593541
 20
205.0024668000479
 30
0.0
 11
233.9571491593541
 21
205.0024668000479
 31
0.0
  0
ARC
  5
2DF
330
1F
100
AcDbEntity
  8
NoLayerName_001
  6
Continuous
 62
     7
370
    50
100
AcDbCircle
 10
155.3361491593541
 20
240.5882532376748
 30
0.0
 40
1.0
100
AcDbArc
 50
24.4698005207029
 51
45.00000000000014
  0
ARC
  5
2E0
330
1F
100
AcDbEntity
  8
NoLayerName_001
  6
Continuous
 62
     7
370
    50
100
AcDbCircle
 10
160.5781491593541
 20
240.5882532376748
 30
0.0
 40
1.0
100
AcDbArc
 50
134.9999999999999
 51
155.5301994792971
  0
ARC
  5
2E1
330
1F
100
AcDbEntity
  8
NoLayerName_001
  6
Continuous
 62
     7
370
    50
100
AcDbCircle
 10
312.578149159354
 20
240.5882532376748
 30
0.0
 40
1.0
100
AcDbArc
 50
134.9999999999999
 51
155.5301994792971
  0
ARC
  5
2E2
330
1F
100
AcDbEntity
  8
NoLayerName_001
  6
Continuous
 62
     7
370
    50
100
AcDbCircle
 10
307.3361491593541
 20
240.5882532376748
 30
0.0
 40
1.0
100
AcDbArc
 50
24.46980052070289
 51
45.00000000000013
  0
LINE
  5
2E3
330
1F
100
AcDbEntity
  8
NoLayerName_001
  6
Continuous
 62
     7
370
    50
100
AcDbLine
 10
305.2571491593541
 20
244.3948001333812
 30
0.0
 11
305.2571491593541
 21
244.0814668000479
 31
0.0
  0
LINE
  5
2E4
330
1F
100
AcDbEntity
  8
NoLayerName_001
  6
Continuous
 62
     7
370
    50
100
AcDbLine
 10
314.657149159354
 20
244.3948001333812
 30
0.0
 11
314.657149159354
 21
244.0814668000479
 31
0.0
  0
LINE
  5
2E5
330
1F
100
AcDbEntity
  8
NoLayerName_001
  6
Continuous
 62
     7
370
    50
100
AcDbLine
 10
305.257149159354
 20
244.0814668000479
 30
0.0
 11
308.0432559405406
 21
241.2953600188614
 31
0.0
  0
LINE
  5
2E6
330
1F
100
AcDbEntity
  8
NoLayerName_001
  6
Continuous
 62
     7
370
    50
100
AcDbLine
 10
314.6571491593541
 20
244.0814668000479
 30
0.0
 11
311.8710423781675
 21
241.2953600188614
 31
0.0
  0
LINE
  5
2E7
330
1F
100
AcDbEntity
  8
NoLayerName_001
  6
Continuous
 62
     7
370
    50
100
AcDbLine
 10
305.2571491593541
 20
244.3948001333812
 30
0.0
 11
314.657149159354
 21
244.3948001333812
 31
0.0
  0
LINE
  5
2E8
330
1F
100
AcDbEntity
  8
NoLayerName_001
  6
Continuous
 62
     7
370
    50
100
AcDbLine
 10
305.257149159354
 20
244.0814668000479
 30
0.0
 11
314.657149159354
 21
244.0814668000479
 31
0.0
  0
LINE
  5
2E9
330
1F
100
AcDbEntity
  8
NoLayerName_001
  6
Continuous
 62
     7
370
    50
100
AcDbLine
 10
162.657149159354
 20
244.3948001333812
 30
0.0
 11
162.657149159354
 21
244.0814668000479
 31
0.0
  0
LINE
  5
2EA
330
1F
100
AcDbEntity
  8
NoLayerName_001
  6
Continuous
 62
     7
370
    50
100
AcDbLine
 10
153.2571491593541
 20
244.3948001333812
 30
0.0
 11
153.2571491593541
 21
244.0814668000479
 31
0.0
  0
LINE
  5
2EB
330
1F
100
AcDbEntity
  8
NoLayerName_001
  6
Continuous
 62
     7
370
    50
100
AcDbLine
 10
162.6571491593541
 20
244.0814668000479
 30
0.0
 11
159.8710423781675
 21
241.2953600188614
 31
0.0
  0
LINE
  5
2EC
330
1F
100
AcDbEntity
  8
NoLayerName_001
  6
Continuous
 62
     7
370
    50
100
AcDbLine
 10
153.257149159354
 20
244.0814668000479
 30
0.0
 11
156.0432559405406
 21
241.2953600188614
 31
0.0
  0
LINE
  5
2ED
330
1F
100
AcDbEntity
  8
NoLayerName_001
  6
Continuous
 62
     7
370
    50
100
AcDbLine
 10
156.2463288804785
 20
241.0024668000479
 30
0.0
 11
159.6679694382296
 21
241.0024668000479
 31
0.0
  0
LINE
  5
2EE
330
1F
100
AcDbEntity
  8
NoLayerName_001
  6
Continuous
 62
     7
370
    50
100
AcDbLine
 10
162.657149159354
 20
244.3948001333812
 30
0.0
 11
153.257149159354
 21
244.3948001333812
 31
0.0
  0
LINE
  5
2EF
330
1F
100
AcDbEntity
  8
NoLayerName_001
  6
Continuous
 62
     7
370
    50
100
AcDbLine
 10
162.6571491593541
 20
244.0814668000479
 30
0.0
 11
153.2571491593541
 21
244.0814668000479
 31
0.0
  0
LINE
  5
2F0
330
1F
100
AcDbEntity
  8
NoLayerName_001
  6
Continuous
 62
     3
370
    50
100
AcDbLine
 10
147.307149159354
 20
317.1192009715791
 30
0.0
 11
153.0266319451057
 21
317.1192009715791
 31
0.0
  0
LINE
  5
2F1
330
1F
100
AcDbEntity
  8
NoLayerName_001
  6
Continuous
 62
     3
370
    50
100
AcDbLine
 10
162.8876663736024
 20
317.1192009715791
 30
0.0
 11
168.0836497598346
 21
317.1192009715791
 31
0.0
  0
LINE
  5
2F2
330
1F
100
AcDbEntity
  8
NoLayerName_001
  6
Continuous
 62
     3
370
    50
100
AcDbLine
 10
162.8876663736024
 20
426.9192009715791
 30
0.0
 11
168.0836497598346
 21
426.9192009715791
 31
0.0
  0
LINE
  5
2F3
330
1F
100
AcDbEntity
  8
NoLayerName_001
  6
Continuous
 62
     3
370
    50
100
AcDbLine
 10
320.6071491593542
 20
426.9192009715791
 30
0.0
 11
314.8876663736024
 21
426.9192009715791
 31
0.0
  0
LINE
  5
2F4
330
1F
100
AcDbEntity
  8
NoLayerName_001
  6
Continuous
 62
     3
370
    50
100
AcDbLine
 10
305.0266319451057
 20
426.9192009715791
 30
0.0
 11
299.8306485588735
 21
426.9192009715791
 31
0.0
  0
LINE
  5
2F5
330
1F
100
AcDbEntity
  8
NoLayerName_001
  6
Continuous
 62
     3
370
    50
100
AcDbLine
 10
320.6071491593542
 20
317.1192009715791
 30
0.0
 11
314.8876663736024
 21
317.1192009715791
 31
0.0
  0
LINE
  5
2F6
330
1F
100
AcDbEntity
  8
NoLayerName_001
  6
Continuous
 62
     3
370
    50
100
AcDbLine
 10
305.0266319451057
 20
317.1192009715791
 30
0.0
 11
299.8306485588735
 21
317.1192009715791
 31
0.0
  0
ARC
  5
2F7
330
1F
100
AcDbEntity
  8
NoLayerName_001
  6
Continuous
 62
     3
370
    50
100
AcDbCircle
 10
305.0266319451057
 20
313.1192009715791
 30
0.0
 40
4.0
100
AcDbArc
 50
76.09177963567093
 51
89.99999999999997
  0
ARC
  5
2F8
330
1F
100
AcDbEntity
  8
NoLayerName_001
  6
Continuous
 62
     3
370
    50
100
AcDbCircle
 10
314.8876663736024
 20
313.1192009715791
 30
0.0
 40
4.0
100
AcDbArc
 50
89.99999999999997
 51
103.9082203643291
  0
ARC
  5
2F9
330
1F
100
AcDbEntity
  8
NoLayerName_001
  6
Continuous
 62
     3
370
    50
100
AcDbCircle
 10
305.0266319451057
 20
430.9192009715791
 30
0.0
 40
4.0
100
AcDbArc
 50
270.0
 51
283.9082203643255
  0
ARC
  5
2FA
330
1F
100
AcDbEntity
  8
NoLayerName_001
  6
Continuous
 62
     3
370
    50
100
AcDbCircle
 10
314.8876663736024
 20
430.9192009715791
 30
0.0
 40
4.0
100
AcDbArc
 50
256.0917796356745
 51
270.0
  0
ARC
  5
2FB
330
1F
100
AcDbEntity
  8
NoLayerName_001
  6
Continuous
 62
     3
370
    50
100
AcDbCircle
 10
153.0266319451057
 20
430.9192009715791
 30
0.0
 40
4.0
100
AcDbArc
 50
266.69658226324
 51
283.9082203643298
  0
ARC
  5
2FC
330
1F
100
AcDbEntity
  8
NoLayerName_001
  6
Continuous
 62
     3
370
    50
100
AcDbCircle
 10
162.8876663736024
 20
430.9192009715791
 30
0.0
 40
4.0
100
AcDbArc
 50
256.0917796356702
 51
270.0
  0
ARC
  5
2FD
330
1F
100
AcDbEntity
  8
NoLayerName_001
  6
Continuous
 62
     3
370
    50
100
AcDbCircle
 10
153.0266319451057
 20
313.1192009715791
 30
0.0
 40
4.0
100
AcDbArc
 50
76.0917796356745
 51
90.00000000000001
  0
ARC
  5
2FE
330
1F
100
AcDbEntity
  8
NoLayerName_001
  6
Continuous
 62
     3
370
    50
100
AcDbCircle
 10
162.8876663736024
 20
313.1192009715791
 30
0.0
 40
4.0
100
AcDbArc
 50
90.00000000000001
 51
103.9082203643255
  0
LINE
  5
2FF
330
1F
100
AcDbEntity
  8
NoLayerName_001
  6
CENTER
 62
     2
370
    25
100
AcDbLine
 10
233.9571491593541
 20
245.8970428193938
 30
0.0
 11
233.9571491593541
 21
201.5041804878478
 31
0.0
  0
LINE
  5
300
330
1F
100
AcDbEntity
  8
NoLayerName_002
  6
CENTER
 62
    30
370
    25
100
AcDbLine
 10
233.9571491593541
 20
394.8409471664825
 30
0.0
 11
233.9571491593541
 21
348.3726279119398
 31
0.0
  0
INSERT
  5
301
330
1F
100
AcDbEntity
  8
NoLayerName_001
 62
     0
100
AcDbBlockReference
  2
JZB_0001
 10
153.2571563720703
 20
314.8192138671875
 30
0.0
  0
INSERT
  5
302
330
1F
100
AcDbEntity
  8
NoLayerName_001
 62
     0
100
AcDbBlockReference
  2
JZB_0002
 10
153.2571563720703
 20
419.8192138671875
 30
0.0
  0
INSERT
  5
303
330
1F
100
AcDbEntity
  8
NoLayerName_001
 62
     0
100
AcDbBlockReference
  2
JZB_0003
 10
305.2571411132812
 20
419.8192138671875
 30
0.0
  0
INSERT
  5
304
330
1F
100
AcDbEntity
  8
NoLayerName_001
 62
     0
100
AcDbBlockReference
  2
JZB_0004
 10
305.2571411132812
 20
314.8192138671875
 30
0.0
  0
LINE
  5
305
330
1F
100
AcDbEntity
  8
NoLayerName_004
  6
Continuous
 62
     7
370
   100
100
AcDbLine
 10
372.0
 20
80.0
 30
0.0
 11
372.0
 21
40.0
 31
0.0
  0
LINE
  5
306
330
1F
100
AcDbEntity
  8
NoLayerName_004
  6
Continuous
 62
     7
370
    25
100
AcDbLine
 10
253.0
 20
54.0
 30
0.0
 11
372.0
 21
54.0
 31
0.0
  0
LINE
  5
307
330
1F
100
AcDbEntity
  8
NoLayerName_004
  6
Continuous
 62
     7
370
    25
100
AcDbLine
 10
275.0
 20
80.0
 30
0.0
 11
275.0
 21
40.0
 31
0.0
  0
LINE
  5
308
330
1F
100
AcDbEntity
  8
NoLayerName_004
  6
Continuous
 62
     7
370
   100
100
AcDbLine
 10
253.0
 20
80.0
 30
0.0
 11
253.0
 21
40.0
 31
0.0
  0
LINE
  5
309
330
1F
100
AcDbEntity
  8
NoLayerName_004
  6
Continuous
 62
     7
370
   100
100
AcDbLine
 10
253.0
 20
40.0
 30
0.0
 11
372.0
 21
40.0
 31
0.0
  0
LINE
  5
30A
330
1F
100
AcDbEntity
  8
NoLayerName_004
  6
Continuous
 62
     7
370
   100
100
AcDbLine
 10
372.0
 20
80.0
 30
0.0
 11
253.0
 21
80.0
 31
0.0
  0
MTEXT
  5
30B
330
1F
100
AcDbEntity
  8
NoLayerName_004
 62
     7
370
    50
100
AcDbMText
 10
255.2960004806519
 20
63.79999995231628
 30
0.0
 40
4.413793169218918
 41
0.0
 71
     7
 72
     5
  1
\fＭＳ Ｐゴシック|b0|c128|p50;\A1;品　名
 73
     1
 44
1.299389002163688
1001
ACAD
1000
ACAD_MTEXT_DEFINED_HEIGHT_BEGIN
1070
    46
1040
3.200000047683716
1000
ACAD_MTEXT_DEFINED_HEIGHT_END
  0
MTEXT
  5
30C
330
1F
100
AcDbEntity
  8
NoLayerName_001
 62
     7
370
    50
100
AcDbMText
 10
323.5000009935063
 20
67.00000004768371
 30
0.0
 40
4.413793169218918
 41
0.0
 71
     5
 72
     5
  1
\fＭＳ Ｐゴシック|b0|c128|p50;\A1;セパレートボックス\P３個用　Ｈ：３６
 73
     1
 44
0.9745417371009623
1001
ACAD
1000
ACAD_MTEXT_DEFINED_HEIGHT_BEGIN
1070
    46
1040
6.400000095367432
1000
ACAD_MTEXT_DEFINED_HEIGHT_END
  0
MTEXT
  5
30D
330
1F
100
AcDbEntity
  8
NoLayerName_004
 62
     7
370
    50
100
AcDbMText
 10
255.2960004806519
 20
43.79999995231628
 30
0.0
 40
4.413793169218918
 41
0.0
 71
     7
 72
     5
  1
\fＭＳ Ｐゴシック|b0|c128|p50;\A1;品　番
 73
     1
 44
1.299389002163688
1001
ACAD
1000
ACAD_MTEXT_DEFINED_HEIGHT_BEGIN
1070
    46
1040
3.200000047683716
1000
ACAD_MTEXT_DEFINED_HEIGHT_END
  0
MTEXT
  5
30E
330
1F
100
AcDbEntity
  8
NoLayerName_001
 62
     7
370
    50
100
AcDbMText
 10
323.5000002418702
 20
47.00000004768371
 30
0.0
 40
4.413793169218918
 41
0.0
 71
     5
 72
     5
  1
\fＭＳ Ｐゴシック|b0|c128|p50;\A1;ＳＢ３３６ＢＳ
 73
     1
 44
1.299389002163688
1001
ACAD
1000
ACAD_MTEXT_DEFINED_HEIGHT_BEGIN
1070
    46
1040
3.200000047683716
1000
ACAD_MTEXT_DEFINED_HEIGHT_END
  0
ENDSEC
  0
SECTION
  2
OBJECTS
  0
DICTIONARY
  5
C
330
0
100
AcDbDictionary
281
     1
  3
ACAD_GROUP
350
D
  3
ACAD_LAYOUT
350
1A
  3
ACAD_MATERIAL
350
3B
  3
ACAD_MLEADERSTYLE
350
333
  3
ACAD_MLINESTYLE
350
17
  3
ACAD_PLOTSETTINGS
350
19
  3
ACAD_PLOTSTYLENAME
350
E
  3
ACAD_SCALELIST
350
30F
  3
ACAD_VISUALSTYLE
350
2A
  3
AcDbVariableDictionary
350
331
  3
DWGPROPS
350
339
  0
DICTIONARY
  5
D
102
{ACAD_REACTORS
330
C
102
}
330
C
100
AcDbDictionary
281
     1
  0
DICTIONARY
  5
1A
102
{ACAD_REACTORS
330
C
102
}
330
C
100
AcDbDictionary
281
     1
  3
Layout1
350
1E
  3
Model
350
22
  0
DICTIONARY
  5
3B
102
{ACAD_REACTORS
330
C
102
}
330
C
100
AcDbDictionary
281
     1
  3
ByBlock
350
3D
  3
ByLayer
350
3C
  3
Global
350
3E
  0
DICTIONARY
  5
333
102
{ACAD_REACTORS
330
C
102
}
330
C
100
AcDbDictionary
281
     1
  0
DICTIONARY
  5
17
102
{ACAD_REACTORS
330
C
102
}
330
C
100
AcDbDictionary
281
     1
  3
Standard
350
18
  0
DICTIONARY
  5
19
102
{ACAD_REACTORS
330
C
102
}
330
C
100
AcDbDictionary
281
     1
  0
ACDBDICTIONARYWDFLT
  5
E
102
{ACAD_REACTORS
330
C
102
}
330
C
100
AcDbDictionary
281
     1
  3
Normal
350
F
100
AcDbDictionaryWithDefault
340
F
  0
DICTIONARY
  5
30F
102
{ACAD_REACTORS
330
C
102
}
330
C
100
AcDbDictionary
281
     1
  3
A0
350
310
  3
A1
350
311
  3
A2
350
312
  3
A3
350
313
  3
A4
350
314
  3
A5
350
315
  3
A6
350
316
  3
A7
350
317
  3
A8
350
318
  3
A9
350
319
  3
B0
350
31A
  3
B1
350
31B
  3
B2
350
31C
  3
B3
350
31D
  3
B4
350
31E
  3
B5
350
31F
  3
B6
350
320
  3
B7
350
321
  3
B8
350
322
  3
B9
350
323
  3
C0
350
324
  3
C1
350
325
  3
C2
350
326
  3
C3
350
327
  3
C4
350
328
  3
C5
350
329
  3
C6
350
32A
  3
C7
350
32B
  3
C8
350
32C
  3
C9
350
32D
  3
D0
350
32E
  3
D1
350
32F
  3
D2
350
330
  0
DICTIONARY
  5
2A
102
{ACAD_REACTORS
330
C
102
}
330
C
100
AcDbDictionary
281
     1
  3
2dWireframe
350
2F
  3
3D Hidden
350
31
  3
3dWireframe
350
30
  3
Basic
350
32
  3
Brighten
350
36
  3
ColorChange
350
3A
  3
Conceptual
350
34
  3
Dim
350
35
  3
Facepattern
350
39
  3
Flat
350
2B
  3
FlatWithEdges
350
2C
  3
Gouraud
350
2D
  3
GouraudWithEdges
350
2E
  3
Linepattern
350
38
  3
Realistic
350
33
  3
Thicken
350
37
  0
DICTIONARY
  5
331
102
{ACAD_REACTORS
330
C
102
}
330
C
100
AcDbDictionary
281
     1
  3
CANNOSCALE
350
336
  3
DIMASSOC
350
337
  3
HIDETEXT
350
338
  3
PSOLHEIGHT
350
335
  3
PSOLWIDTH
350
334
  0
XRECORD
  5
339
102
{ACAD_REACTORS
330
C
102
}
330
C
100
AcDbXrecord
280
     1
  1
DWGPROPS COOKIE
  2

  3

  4

  6
File was created by TR2_DExp
  7

  8

  9

300
=
301
=
302
=
303
=
304
=
305
=
306
=
307
=
308
=
309
=
 40
0.0
 41
2457922.346500706
 42
2457922.346501424
  1

 90
        0
  0
LAYOUT
  5
1E
102
{ACAD_REACTORS
330
1A
102
}
330
1A
100
AcDbPlotSettings
  1

  2
none_device
  4

  6

 40
0.0
 41
0.0
 42
0.0
 43
0.0
 44
0.0
 45
0.0
 46
0.0
 47
0.0
 48
0.0
 49
0.0
140
0.0
141
0.0
142
1.0
143
1.0
 70
   688
 72
     0
 73
     0
 74
     5
  7

 75
    16
147
1.0
148
0.0
149
0.0
100
AcDbLayout
  1
Layout1
 70
     0
 71
     1
 10
0.0
 20
0.0
 11
420.0
 21
297.0
 12
0.0
 22
0.0
 32
0.0
 14
1.000000000000000E+20
 24
1.000000000000000E+20
 34
1.000000000000000E+20
 15
-1.000000000000000E+20
 25
-1.000000000000000E+20
 35
-1.000000000000000E+20
146
0.0
 13
0.0
 23
0.0
 33
0.0
 16
1.0
 26
0.0
 36
0.0
 17
0.0
 27
1.0
 37
0.0
 76
     0
330
1B
  0
LAYOUT
  5
22
102
{ACAD_REACTORS
330
1A
102
}
330
1A
100
AcDbPlotSettings
  1

  2
none_device
  4

  6

 40
0.0
 41
0.0
 42
0.0
 43
0.0
 44
0.0
 45
0.0
 46
0.0
 47
0.0
 48
0.0
 49
0.0
140
0.0
141
0.0
142
1.0
143
1.0
 70
  1712
 72
     0
 73
     0
 74
     0
  7

 75
     0
147
1.0
148
0.0
149
0.0
100
AcDbLayout
  1
Model
 70
     1
 71
     0
 10
140.4222208032914
 20
40.0
 11
372.0
 21
432.5192009715791
 12
0.0
 22
0.0
 32
0.0
 14
140.4222208032914
 24
40.0
 34
0.0
 15
372.0
 25
432.5192009715791
 35
0.0
146
0.0
 13
0.0
 23
0.0
 33
0.0
 16
1.0
 26
0.0
 36
0.0
 17
0.0
 27
1.0
 37
0.0
 76
     0
330
1F
331
29
  0
MATERIAL
  5
3D
102
{ACAD_REACTORS
330
3B
102
}
102
{ACAD_XDICTIONARY
360
35C
102
}
330
3B
100
AcDbMaterial
  1
ByBlock
  0
MATERIAL
  5
3C
102
{ACAD_REACTORS
330
3B
102
}
102
{ACAD_XDICTIONARY
360
35A
102
}
330
3B
100
AcDbMaterial
  1
ByLayer
  0
MATERIAL
  5
3E
102
{ACAD_REACTORS
330
3B
102
}
102
{ACAD_XDICTIONARY
360
35E
102
}
330
3B
100
AcDbMaterial
  1
Global
  0
MLINESTYLE
  5
18
102
{ACAD_REACTORS
330
17
102
}
330
17
100
AcDbMlineStyle
  2
Standard
 70
     0
  3

 62
   256
 51
90.0
 52
90.0
 71
     2
 49
0.5
 62
   256
  6
BYLAYER
 49
-0.5
 62
   256
  6
BYLAYER
  0
ACDBPLACEHOLDER
  5
F
102
{ACAD_REACTORS
330
E
102
}
330
E
  0
SCALE
  5
310
102
{ACAD_REACTORS
330
30F
102
}
330
30F
100
AcDbScale
 70
     0
300
1:1
140
1.0
141
1.0
290
     1
  0
SCALE
  5
311
102
{ACAD_REACTORS
330
30F
102
}
330
30F
100
AcDbScale
 70
     0
300
1:2
140
1.0
141
2.0
290
     0
  0
SCALE
  5
312
102
{ACAD_REACTORS
330
30F
102
}
330
30F
100
AcDbScale
 70
     0
300
1:4
140
1.0
141
4.0
290
     0
  0
SCALE
  5
313
102
{ACAD_REACTORS
330
30F
102
}
330
30F
100
AcDbScale
 70
     0
300
1:5
140
1.0
141
5.0
290
     0
  0
SCALE
  5
314
102
{ACAD_REACTORS
330
30F
102
}
330
30F
100
AcDbScale
 70
     0
300
1:8
140
1.0
141
8.0
290
     0
  0
SCALE
  5
315
102
{ACAD_REACTORS
330
30F
102
}
330
30F
100
AcDbScale
 70
     0
300
1:10
140
1.0
141
10.0
290
     0
  0
SCALE
  5
316
102
{ACAD_REACTORS
330
30F
102
}
330
30F
100
AcDbScale
 70
     0
300
1:16
140
1.0
141
16.0
290
     0
  0
SCALE
  5
317
102
{ACAD_REACTORS
330
30F
102
}
330
30F
100
AcDbScale
 70
     0
300
1:20
140
1.0
141
20.0
290
     0
  0
SCALE
  5
318
102
{ACAD_REACTORS
330
30F
102
}
330
30F
100
AcDbScale
 70
     0
300
1:30
140
1.0
141
30.0
290
     0
  0
SCALE
  5
319
102
{ACAD_REACTORS
330
30F
102
}
330
30F
100
AcDbScale
 70
     0
300
1:40
140
1.0
141
40.0
290
     0
  0
SCALE
  5
31A
102
{ACAD_REACTORS
330
30F
102
}
330
30F
100
AcDbScale
 70
     0
300
1:50
140
1.0
141
50.0
290
     0
  0
SCALE
  5
31B
102
{ACAD_REACTORS
330
30F
102
}
330
30F
100
AcDbScale
 70
     0
300
1:100
140
1.0
141
100.0
290
     0
  0
SCALE
  5
31C
102
{ACAD_REACTORS
330
30F
102
}
330
30F
100
AcDbScale
 70
     0
300
2:1
140
2.0
141
1.0
290
     0
  0
SCALE
  5
31D
102
{ACAD_REACTORS
330
30F
102
}
330
30F
100
AcDbScale
 70
     0
300
4:1
140
4.0
141
1.0
290
     0
  0
SCALE
  5
31E
102
{ACAD_REACTORS
330
30F
102
}
330
30F
100
AcDbScale
 70
     0
300
8:1
140
8.0
141
1.0
290
     0
  0
SCALE
  5
31F
102
{ACAD_REACTORS
330
30F
102
}
330
30F
100
AcDbScale
 70
     0
300
10:1
140
10.0
141
1.0
290
     0
  0
SCALE
  5
320
102
{ACAD_REACTORS
330
30F
102
}
330
30F
100
AcDbScale
 70
     0
300
100:1
140
100.0
141
1.0
290
     0
  0
SCALE
  5
321
102
{ACAD_REACTORS
330
30F
102
}
330
30F
100
AcDbScale
 70
     0
300
1/128" = 1'-0"
140
0.0078125
141
12.0
290
     0
  0
SCALE
  5
322
102
{ACAD_REACTORS
330
30F
102
}
330
30F
100
AcDbScale
 70
     0
300
1/64" = 1'-0"
140
0.015625
141
12.0
290
     0
  0
SCALE
  5
323
102
{ACAD_REACTORS
330
30F
102
}
330
30F
100
AcDbScale
 70
     0
300
1/32" = 1'-0"
140
0.03125
141
12.0
290
     0
  0
SCALE
  5
324
102
{ACAD_REACTORS
330
30F
102
}
330
30F
100
AcDbScale
 70
     0
300
1/16" = 1'-0"
140
0.0625
141
12.0
290
     0
  0
SCALE
  5
325
102
{ACAD_REACTORS
330
30F
102
}
330
30F
100
AcDbScale
 70
     0
300
3/32" = 1'-0"
140
0.09375
141
12.0
290
     0
  0
SCALE
  5
326
102
{ACAD_REACTORS
330
30F
102
}
330
30F
100
AcDbScale
 70
     0
300
1/8" = 1'-0"
140
0.125
141
12.0
290
     0
  0
SCALE
  5
327
102
{ACAD_REACTORS
330
30F
102
}
330
30F
100
AcDbScale
 70
     0
300
3/16" = 1'-0"
140
0.1875
141
12.0
290
     0
  0
SCALE
  5
328
102
{ACAD_REACTORS
330
30F
102
}
330
30F
100
AcDbScale
 70
     0
300
1/4" = 1'-0"
140
0.25
141
12.0
290
     0
  0
SCALE
  5
329
102
{ACAD_REACTORS
330
30F
102
}
330
30F
100
AcDbScale
 70
     0
300
3/8" = 1'-0"
140
0.375
141
12.0
290
     0
  0
SCALE
  5
32A
102
{ACAD_REACTORS
330
30F
102
}
330
30F
100
AcDbScale
 70
     0
300
1/2" = 1'-0"
140
0.5
141
12.0
290
     0
  0
SCALE
  5
32B
102
{ACAD_REACTORS
330
30F
102
}
330
30F
100
AcDbScale
 70
     0
300
3/4" = 1'-0"
140
0.75
141
12.0
290
     0
  0
SCALE
  5
32C
102
{ACAD_REACTORS
330
30F
102
}
330
30F
100
AcDbScale
 70
     0
300
1" = 1'-0"
140
1.0
141
12.0
290
     0
  0
SCALE
  5
32D
102
{ACAD_REACTORS
330
30F
102
}
330
30F
100
AcDbScale
 70
     0
300
1-1/2" = 1'-0"
140
1.5
141
12.0
290
     0
  0
SCALE
  5
32E
102
{ACAD_REACTORS
330
30F
102
}
330
30F
100
AcDbScale
 70
     0
300
3" = 1'-0"
140
3.0
141
12.0
290
     0
  0
SCALE
  5
32F
102
{ACAD_REACTORS
330
30F
102
}
330
30F
100
AcDbScale
 70
     0
300
6" = 1'-0"
140
6.0
141
12.0
290
     0
  0
SCALE
  5
330
102
{ACAD_REACTORS
330
30F
102
}
330
30F
100
AcDbScale
 70
     0
300
1'-0" = 1'-0"
140
12.0
141
12.0
290
     0
  0
VISUALSTYLE
  5
2F
102
{ACAD_REACTORS
330
2A
102
}
102
{ACAD_XDICTIONARY
360
342
102
}
330
2A
100
AcDbVisualStyle
  2
2dWireframe
 70
     4
 71
     0
 72
     2
 73
     0
 90
        0
 40
-0.6
 41
-30.0
 62
     5
 63
     7
 74
     1
 91
        4
 64
     7
 65
   257
 75
     1
175
     1
 42
1.0
 92
        0
 66
   257
 43
1.0
 76
     1
 77
     6
 78
     2
 67
     7
 79
     5
170
     0
171
     0
290
     0
174
     0
 93
        1
 44
0.0
173
     0
291
     0
 45
0.0
1001
ACAD
1000
AcDbSavedByObjectVersion
1070
     0
  0
VISUALSTYLE
  5
31
102
{ACAD_REACTORS
330
2A
102
}
102
{ACAD_XDICTIONARY
360
346
102
}
330
2A
100
AcDbVisualStyle
  2
3D Hidden
 70
     6
 71
     1
 72
     2
 73
     2
 90
        0
 40
-0.6
 41
-30.0
 62
     5
 63
     7
 74
     2
 91
        2
 64
     7
 65
   257
 75
     2
175
     1
 42
40.0
 92
        0
 66
   257
 43
1.0
 76
     1
 77
     6
 78
     2
 67
     7
 79
     3
170
     0
171
     0
290
     0
174
     0
 93
        1
 44
0.0
173
     0
291
     0
 45
0.0
1001
ACAD
1000
AcDbSavedByObjectVersion
1070
     0
  0
VISUALSTYLE
  5
30
102
{ACAD_REACTORS
330
2A
102
}
102
{ACAD_XDICTIONARY
360
344
102
}
330
2A
100
AcDbVisualStyle
  2
3dWireframe
 70
     5
 71
     0
 72
     2
 73
     0
 90
        0
 40
-0.6
 41
-30.0
 62
     5
 63
     7
 74
     1
 91
        4
 64
     7
 65
   257
 75
     1
175
     1
 42
1.0
 92
        0
 66
   257
 43
1.0
 76
     1
 77
     6
 78
     2
 67
     7
 79
     5
170
     0
171
     0
290
     0
174
     0
 93
        1
 44
0.0
173
     0
291
     0
 45
0.0
1001
ACAD
1000
AcDbSavedByObjectVersion
1070
     0
  0
VISUALSTYLE
  5
32
102
{ACAD_REACTORS
330
2A
102
}
102
{ACAD_XDICTIONARY
360
348
102
}
330
2A
100
AcDbVisualStyle
  2
Basic
 70
     7
 71
     1
 72
     0
 73
     1
 90
        0
 40
-0.6
 41
-30.0
 62
     5
 63
     7
 74
     0
 91
        4
 64
     7
 65
   257
 75
     1
175
     1
 42
1.0
 92
        8
 66
     7
 43
1.0
 76
     1
 77
     6
 78
     2
 67
     7
 79
     5
170
     0
171
     0
290
     0
174
     0
 93
        1
 44
0.0
173
     0
291
     1
 45
0.0
1001
ACAD
1000
AcDbSavedByObjectVersion
1070
     0
  0
VISUALSTYLE
  5
36
102
{ACAD_REACTORS
330
2A
102
}
102
{ACAD_XDICTIONARY
360
350
102
}
330
2A
100
AcDbVisualStyle
  2
Brighten
 70
    12
 71
     2
 72
     2
 73
     0
 90
        0
 40
-0.6
 41
-30.0
 62
     5
 63
     7
 74
     1
 91
        4
 64
     7
 65
   257
 75
     1
175
     1
 42
1.0
 92
        8
 66
     7
 43
1.0
 76
     1
 77
     6
 78
     2
 67
     7
 79
     5
170
     0
171
     0
290
     0
174
     0
 93
        1
 44
50.0
173
     0
291
     1
 45
0.0
1001
ACAD
1000
AcDbSavedByObjectVersion
1070
     0
  0
VISUALSTYLE
  5
3A
102
{ACAD_REACTORS
330
2A
102
}
102
{ACAD_XDICTIONARY
360
358
102
}
330
2A
100
AcDbVisualStyle
  2
ColorChange
 70
    16
 71
     2
 72
     2
 73
     3
 90
        0
 40
-0.6
 41
-30.0
 62
     5
 63
     8
 74
     1
 91
        4
 64
     7
 65
   257
 75
     1
175
     1
 42
1.0
 92
        8
 66
     8
 43
1.0
 76
     1
 77
     6
 78
     2
 67
     7
 79
     5
170
     0
171
     0
290
     0
174
     0
 93
        1
 44
0.0
173
     0
291
     1
 45
0.0
1001
ACAD
1000
AcDbSavedByObjectVersion
1070
     0
  0
VISUALSTYLE
  5
34
102
{ACAD_REACTORS
330
2A
102
}
102
{ACAD_XDICTIONARY
360
34C
102
}
330
2A
100
AcDbVisualStyle
  2
Conceptual
 70
     9
 71
     3
 72
     2
 73
     0
 90
        0
 40
-0.6
 41
-30.0
 62
     5
 63
     7
 74
     2
 91
        2
 64
     7
 65
   257
 75
     1
175
     1
 42
40.0
 92
        8
 66
     7
 43
1.0
 76
     1
 77
     6
 78
     2
 67
     7
 79
     3
170
     0
171
     0
290
     0
174
     0
 93
        1
 44
0.0
173
     0
291
     0
 45
0.0
1001
ACAD
1000
AcDbSavedByObjectVersion
1070
     0
  0
VISUALSTYLE
  5
35
102
{ACAD_REACTORS
330
2A
102
}
102
{ACAD_XDICTIONARY
360
34E
102
}
330
2A
100
AcDbVisualStyle
  2
Dim
 70
    11
 71
     2
 72
     2
 73
     0
 90
        0
 40
-0.6
 41
-30.0
 62
     5
 63
     7
 74
     1
 91
        4
 64
     7
 65
   257
 75
     1
175
     1
 42
1.0
 92
        8
 66
     7
 43
1.0
 76
     1
 77
     6
 78
     2
 67
     7
 79
     5
170
     0
171
     0
290
     0
174
     0
 93
        1
 44
-50.0
173
     0
291
     1
 45
0.0
1001
ACAD
1000
AcDbSavedByObjectVersion
1070
     0
  0
VISUALSTYLE
  5
39
102
{ACAD_REACTORS
330
2A
102
}
102
{ACAD_XDICTIONARY
360
356
102
}
330
2A
100
AcDbVisualStyle
  2
Facepattern
 70
    15
 71
     2
 72
     2
 73
     0
 90
        0
 40
-0.6
 41
-30.0
 62
     5
 63
     7
 74
     1
 91
        4
 64
     7
 65
   257
 75
     1
175
     1
 42
1.0
 92
        8
 66
     7
 43
1.0
 76
     1
 77
     6
 78
     2
 67
     7
 79
     5
170
     0
171
     0
290
     0
174
     0
 93
        1
 44
0.0
173
     0
291
     1
 45
0.0
1001
ACAD
1000
AcDbSavedByObjectVersion
1070
     0
  0
VISUALSTYLE
  5
2B
102
{ACAD_REACTORS
330
2A
102
}
102
{ACAD_XDICTIONARY
360
33A
102
}
330
2A
100
AcDbVisualStyle
  2
Flat
 70
     0
 71
     2
 72
     1
 73
     1
 90
        2
 40
-0.6
 41
30.0
 62
     5
 63
     7
 74
     0
 91
        4
 64
     7
 65
   257
 75
     1
175
     1
 42
1.0
 92
        8
 66
     7
 43
1.0
 76
     1
 77
     6
 78
     2
 67
     7
 79
     5
170
     0
171
     0
290
     0
174
     0
 93
       13
 44
0.0
173
     0
291
     1
 45
0.0
1001
ACAD
1000
AcDbSavedByObjectVersion
1070
     0
  0
VISUALSTYLE
  5
2C
102
{ACAD_REACTORS
330
2A
102
}
102
{ACAD_XDICTIONARY
360
33C
102
}
330
2A
100
AcDbVisualStyle
  2
FlatWithEdges
 70
     1
 71
     2
 72
     1
 73
     1
 90
        2
 40
-0.6
 41
30.0
 62
     5
 63
     7
 74
     1
 91
        4
 64
     7
 65
   257
 75
     1
175
     1
 42
1.0
 92
        0
 66
   257
 43
1.0
 76
     1
 77
     6
 78
     2
 67
     7
 79
     5
170
     0
171
     0
290
     0
174
     0
 93
       13
 44
0.0
173
     0
291
     1
 45
0.0
1001
ACAD
1000
AcDbSavedByObjectVersion
1070
     0
  0
VISUALSTYLE
  5
2D
102
{ACAD_REACTORS
330
2A
102
}
102
{ACAD_XDICTIONARY
360
33E
102
}
330
2A
100
AcDbVisualStyle
  2
Gouraud
 70
     2
 71
     2
 72
     2
 73
     1
 90
        2
 40
-0.6
 41
30.0
 62
     5
 63
     7
 74
     0
 91
        4
 64
     7
 65
   257
 75
     1
175
     1
 42
1.0
 92
        0
 66
     7
 43
1.0
 76
     1
 77
     6
 78
     2
 67
     7
 79
     5
170
     0
171
     0
290
     0
174
     0
 93
       13
 44
0.0
173
     0
291
     1
 45
0.0
1001
ACAD
1000
AcDbSavedByObjectVersion
1070
     0
  0
VISUALSTYLE
  5
2E
102
{ACAD_REACTORS
330
2A
102
}
102
{ACAD_XDICTIONARY
360
340
102
}
330
2A
100
AcDbVisualStyle
  2
GouraudWithEdges
 70
     3
 71
     2
 72
     2
 73
     1
 90
        2
 40
-0.6
 41
30.0
 62
     5
 63
     7
 74
     1
 91
        4
 64
     7
 65
   257
 75
     1
175
     1
 42
1.0
 92
        0
 66
   257
 43
1.0
 76
     1
 77
     6
 78
     2
 67
     7
 79
     5
170
     0
171
     0
290
     0
174
     0
 93
       13
 44
0.0
173
     0
291
     1
 45
0.0
1001
ACAD
1000
AcDbSavedByObjectVersion
1070
     0
  0
VISUALSTYLE
  5
38
102
{ACAD_REACTORS
330
2A
102
}
102
{ACAD_XDICTIONARY
360
354
102
}
330
2A
100
AcDbVisualStyle
  2
Linepattern
 70
    14
 71
     2
 72
     2
 73
     0
 90
        0
 40
-0.6
 41
-30.0
 62
     5
 63
     7
 74
     1
 91
        4
 64
     7
 65
   257
 75
     7
175
     7
 42
1.0
 92
        8
 66
     7
 43
1.0
 76
     1
 77
     6
 78
     2
 67
     7
 79
     5
170
     0
171
     0
290
     0
174
     0
 93
        1
 44
0.0
173
     0
291
     1
 45
0.0
1001
ACAD
1000
AcDbSavedByObjectVersion
1070
     0
  0
VISUALSTYLE
  5
33
102
{ACAD_REACTORS
330
2A
102
}
102
{ACAD_XDICTIONARY
360
34A
102
}
330
2A
100
AcDbVisualStyle
  2
Realistic
 70
     8
 71
     2
 72
     2
 73
     0
 90
        0
 40
-0.6
 41
-30.0
 62
     5
 63
     7
 74
     1
 91
        0
 64
     7
 65
   257
 75
     1
175
     1
 42
1.0
 92
        8
 66
     8
 43
1.0
 76
     1
 77
     6
 78
     2
 67
     7
 79
     5
170
     0
171
     0
290
     0
174
     0
 93
       13
 44
0.0
173
     0
291
     0
 45
0.0
1001
ACAD
1000
AcDbSavedByObjectVersion
1070
     0
  0
VISUALSTYLE
  5
37
102
{ACAD_REACTORS
330
2A
102
}
102
{ACAD_XDICTIONARY
360
352
102
}
330
2A
100
AcDbVisualStyle
  2
Thicken
 70
    13
 71
     2
 72
     2
 73
     0
 90
        0
 40
-0.6
 41
-30.0
 62
     5
 63
     7
 74
     1
 91
        4
 64
     7
 65
   257
 75
     1
175
     1
 42
1.0
 92
       12
 66
     7
 43
1.0
 76
     1
 77
     6
 78
     2
 67
     7
 79
     5
170
     0
171
     0
290
     0
174
     0
 93
        1
 44
0.0
173
     0
291
     1
 45
0.0
1001
ACAD
1000
AcDbSavedByObjectVersion
1070
     0
  0
DICTIONARYVAR
  5
336
102
{ACAD_REACTORS
330
331
102
}
330
331
100
DictionaryVariables
280
     0
  1
1:1
  0
DICTIONARYVAR
  5
337
102
{ACAD_REACTORS
330
331
102
}
330
331
100
DictionaryVariables
280
     0
  1
2
  0
DICTIONARYVAR
  5
338
102
{ACAD_REACTORS
330
331
102
}
330
331
100
DictionaryVariables
280
     0
  1
1
  0
DICTIONARYVAR
  5
335
102
{ACAD_REACTORS
330
331
102
}
330
331
100
DictionaryVariables
280
     0
  1
80.000000
  0
DICTIONARYVAR
  5
334
102
{ACAD_REACTORS
330
331
102
}
330
331
100
DictionaryVariables
280
     0
  1
5.000000
  0
DICTIONARY
  5
35C
330
3D
100
AcDbDictionary
280
     1
281
     1
  3
ACAD_XREC_ROUNDTRIP
360
35D
  0
DICTIONARY
  5
35A
330
3C
100
AcDbDictionary
280
     1
281
     1
  3
ACAD_XREC_ROUNDTRIP
360
35B
  0
DICTIONARY
  5
35E
330
3E
100
AcDbDictionary
280
     1
281
     1
  3
ACAD_XREC_ROUNDTRIP
360
35F
  0
DICTIONARY
  5
342
330
2F
100
AcDbDictionary
280
     1
281
     1
  3
ACAD_XREC_ROUNDTRIP
360
343
  0
DICTIONARY
  5
346
330
31
100
AcDbDictionary
280
     1
281
     1
  3
ACAD_XREC_ROUNDTRIP
360
347
  0
DICTIONARY
  5
344
330
30
100
AcDbDictionary
280
     1
281
     1
  3
ACAD_XREC_ROUNDTRIP
360
345
  0
DICTIONARY
  5
348
330
32
100
AcDbDictionary
280
     1
281
     1
  3
ACAD_XREC_ROUNDTRIP
360
349
  0
DICTIONARY
  5
350
330
36
100
AcDbDictionary
280
     1
281
     1
  3
ACAD_XREC_ROUNDTRIP
360
351
  0
DICTIONARY
  5
358
330
3A
100
AcDbDictionary
280
     1
281
     1
  3
ACAD_XREC_ROUNDTRIP
360
359
  0
DICTIONARY
  5
34C
330
34
100
AcDbDictionary
280
     1
281
     1
  3
ACAD_XREC_ROUNDTRIP
360
34D
  0
DICTIONARY
  5
34E
330
35
100
AcDbDictionary
280
     1
281
     1
  3
ACAD_XREC_ROUNDTRIP
360
34F
  0
DICTIONARY
  5
356
330
39
100
AcDbDictionary
280
     1
281
     1
  3
ACAD_XREC_ROUNDTRIP
360
357
  0
DICTIONARY
  5
33A
330
2B
100
AcDbDictionary
280
     1
281
     1
  3
ACAD_XREC_ROUNDTRIP
360
33B
  0
DICTIONARY
  5
33C
330
2C
100
AcDbDictionary
280
     1
281
     1
  3
ACAD_XREC_ROUNDTRIP
360
33D
  0
DICTIONARY
  5
33E
330
2D
100
AcDbDictionary
280
     1
281
     1
  3
ACAD_XREC_ROUNDTRIP
360
33F
  0
DICTIONARY
  5
340
330
2E
100
AcDbDictionary
280
     1
281
     1
  3
ACAD_XREC_ROUNDTRIP
360
341
  0
DICTIONARY
  5
354
330
38
100
AcDbDictionary
280
     1
281
     1
  3
ACAD_XREC_ROUNDTRIP
360
355
  0
DICTIONARY
  5
34A
330
33
100
AcDbDictionary
280
     1
281
     1
  3
ACAD_XREC_ROUNDTRIP
360
34B
  0
DICTIONARY
  5
352
330
37
100
AcDbDictionary
280
     1
281
     1
  3
ACAD_XREC_ROUNDTRIP
360
353
  0
XRECORD
  5
35D
102
{ACAD_REACTORS
330
35C
102
}
330
35C
100
AcDbXrecord
280
     1
102
MATERIAL
148
0.0
149
0.0
149
0.0
 93
        0
 94
      127
282
     0
 72
     1
 77
     1
171
     1
175
     1
179
     1
273
     0
  0
XRECORD
  5
35B
102
{ACAD_REACTORS
330
35A
102
}
330
35A
100
AcDbXrecord
280
     1
102
MATERIAL
148
0.0
149
0.0
149
0.0
 93
        0
 94
      127
282
     0
 72
     1
 77
     1
171
     1
175
     1
179
     1
273
     0
  0
XRECORD
  5
35F
102
{ACAD_REACTORS
330
35E
102
}
330
35E
100
AcDbXrecord
280
     1
102
MATERIAL
148
0.0
149
0.0
149
0.0
 93
        0
 94
      127
282
     0
 72
     1
 77
     1
171
     1
175
     1
179
     1
273
     0
  0
XRECORD
  5
343
102
{ACAD_REACTORS
330
342
102
}
330
342
100
AcDbXrecord
280
     1
102
RTVSPropertyOp0
 70
     1
102
RTVSPropertyOp1
 70
     1
102
RTVSPropertyOp2
 70
     1
102
RTVSPropertyOp3
 70
     1
102
RTVSPropertyOp4
 70
     1
102
RTVSPropertyOp5
 70
     1
102
RTVSPropertyOp6
 70
     1
102
RTVSPropertyOp7
 70
     1
102
RTVSPropertyOp8
 70
     1
102
RTVSPropertyOp9
 70
     1
102
RTVSPropertyOp10
 70
     1
102
RTVSPropertyOp11
 70
     1
102
RTVSPropertyOp12
 70
     1
102
RTVSPropertyOp13
 70
     1
102
RTVSPropertyOp14
 70
     1
102
RTVSPropertyOp15
 70
     1
102
RTVSPropertyOp16
 70
     1
102
RTVSPropertyOp17
 70
     1
102
RTVSPropertyOp18
 70
     1
102
RTVSPropertyOp19
 70
     1
102
RTVSPropertyOp20
 70
     1
102
RTVSPropertyOp21
 70
     1
102
RTVSPropertyOp22
 70
     1
102
RTVSPropertyOp23
 70
     1
102
RTVSPropertyOp24
 70
     1
102
RTVSPropertyOp25
 70
     1
102
RTVSPropertyOp26
 70
     1
102
RTVSPropertyOp27
 70
     1
102
RTVSPropertyOp28
 70
     1
102
RTVSPropertyOp29
 70
     1
102
RTVSPropertyOp30
 70
     1
102
RTVSPropertyOp31
 70
     1
102
RTVSPropertyOp32
 70
     1
  0
XRECORD
  5
347
102
{ACAD_REACTORS
330
346
102
}
330
346
100
AcDbXrecord
280
     1
102
RTVSPropertyOp0
 70
     1
102
RTVSPropertyOp1
 70
     1
102
RTVSPropertyOp2
 70
     1
102
RTVSPropertyOp3
 70
     1
102
RTVSPropertyOp4
 70
     1
102
RTVSPropertyOp5
 70
     1
102
RTVSPropertyOp6
 70
     1
102
RTVSPropertyOp7
 70
     1
102
RTVSPropertyOp8
 70
     1
102
RTVSPropertyOp9
 70
     1
102
RTVSPropertyOp10
 70
     1
102
RTVSPropertyOp11
 70
     1
102
RTVSPropertyOp12
 70
     1
102
RTVSPropertyOp13
 70
     1
102
RTVSPropertyOp14
 70
     1
102
RTVSPropertyOp15
 70
     1
102
RTVSPropertyOp16
 70
     1
102
RTVSPropertyOp17
 70
     1
102
RTVSPropertyOp18
 70
     1
102
RTVSPropertyOp19
 70
     1
102
RTVSPropertyOp20
 70
     1
102
RTVSPropertyOp21
 70
     1
102
RTVSPropertyOp22
 70
     1
102
RTVSPropertyOp23
 70
     1
102
RTVSPropertyOp24
 70
     1
102
RTVSPropertyOp25
 70
     1
102
RTVSPropertyOp26
 70
     1
102
RTVSPropertyOp27
 70
     1
102
RTVSPropertyOp28
 70
     1
102
RTVSPropertyOp29
 70
     1
102
RTVSPropertyOp30
 70
     1
102
RTVSPropertyOp31
 70
     1
102
RTVSPropertyOp32
 70
     1
  0
XRECORD
  5
345
102
{ACAD_REACTORS
330
344
102
}
330
344
100
AcDbXrecord
280
     1
102
RTVSPropertyOp0
 70
     1
102
RTVSPropertyOp1
 70
     1
102
RTVSPropertyOp2
 70
     1
102
RTVSPropertyOp3
 70
     1
102
RTVSPropertyOp4
 70
     1
102
RTVSPropertyOp5
 70
     1
102
RTVSPropertyOp6
 70
     1
102
RTVSPropertyOp7
 70
     1
102
RTVSPropertyOp8
 70
     1
102
RTVSPropertyOp9
 70
     1
102
RTVSPropertyOp10
 70
     1
102
RTVSPropertyOp11
 70
     1
102
RTVSPropertyOp12
 70
     1
102
RTVSPropertyOp13
 70
     1
102
RTVSPropertyOp14
 70
     1
102
RTVSPropertyOp15
 70
     1
102
RTVSPropertyOp16
 70
     1
102
RTVSPropertyOp17
 70
     1
102
RTVSPropertyOp18
 70
     1
102
RTVSPropertyOp19
 70
     1
102
RTVSPropertyOp20
 70
     1
102
RTVSPropertyOp21
 70
     1
102
RTVSPropertyOp22
 70
     1
102
RTVSPropertyOp23
 70
     1
102
RTVSPropertyOp24
 70
     1
102
RTVSPropertyOp25
 70
     1
102
RTVSPropertyOp26
 70
     1
102
RTVSPropertyOp27
 70
     1
102
RTVSPropertyOp28
 70
     1
102
RTVSPropertyOp29
 70
     1
102
RTVSPropertyOp30
 70
     1
102
RTVSPropertyOp31
 70
     1
102
RTVSPropertyOp32
 70
     1
  0
XRECORD
  5
349
102
{ACAD_REACTORS
330
348
102
}
330
348
100
AcDbXrecord
280
     1
102
RTVSPropertyOp0
 70
     1
102
RTVSPropertyOp1
 70
     1
102
RTVSPropertyOp2
 70
     1
102
RTVSPropertyOp3
 70
     1
102
RTVSPropertyOp4
 70
     1
102
RTVSPropertyOp5
 70
     1
102
RTVSPropertyOp6
 70
     1
102
RTVSPropertyOp7
 70
     1
102
RTVSPropertyOp8
 70
     1
102
RTVSPropertyOp9
 70
     1
102
RTVSPropertyOp10
 70
     1
102
RTVSPropertyOp11
 70
     1
102
RTVSPropertyOp12
 70
     1
102
RTVSPropertyOp13
 70
     1
102
RTVSPropertyOp14
 70
     1
102
RTVSPropertyOp15
 70
     1
102
RTVSPropertyOp16
 70
     1
102
RTVSPropertyOp17
 70
     1
102
RTVSPropertyOp18
 70
     1
102
RTVSPropertyOp19
 70
     1
102
RTVSPropertyOp20
 70
     1
102
RTVSPropertyOp21
 70
     1
102
RTVSPropertyOp22
 70
     1
102
RTVSPropertyOp23
 70
     1
102
RTVSPropertyOp24
 70
     1
102
RTVSPropertyOp25
 70
     1
102
RTVSPropertyOp26
 70
     1
102
RTVSPropertyOp27
 70
     1
102
RTVSPropertyOp28
 70
     1
102
RTVSPropertyOp29
 70
     1
102
RTVSPropertyOp30
 70
     1
102
RTVSPropertyOp31
 70
     1
102
RTVSPropertyOp32
 70
     1
  0
XRECORD
  5
351
102
{ACAD_REACTORS
330
350
102
}
330
350
100
AcDbXrecord
280
     1
102
RTVSPropertyOp0
 70
     1
102
RTVSPropertyOp1
 70
     1
102
RTVSPropertyOp2
 70
     1
102
RTVSPropertyOp3
 70
     1
102
RTVSPropertyOp4
 70
     1
102
RTVSPropertyOp5
 70
     1
102
RTVSPropertyOp6
 70
     1
102
RTVSPropertyOp7
 70
     1
102
RTVSPropertyOp8
 70
     1
102
RTVSPropertyOp9
 70
     1
102
RTVSPropertyOp10
 70
     1
102
RTVSPropertyOp11
 70
     1
102
RTVSPropertyOp12
 70
     1
102
RTVSPropertyOp13
 70
     1
102
RTVSPropertyOp14
 70
     1
102
RTVSPropertyOp15
 70
     1
102
RTVSPropertyOp16
 70
     1
102
RTVSPropertyOp17
 70
     1
102
RTVSPropertyOp18
 70
     1
102
RTVSPropertyOp19
 70
     1
102
RTVSPropertyOp20
 70
     1
102
RTVSPropertyOp21
 70
     1
102
RTVSPropertyOp22
 70
     1
102
RTVSPropertyOp23
 70
     1
102
RTVSPropertyOp24
 70
     1
102
RTVSPropertyOp25
 70
     1
102
RTVSPropertyOp26
 70
     1
102
RTVSPropertyOp27
 70
     1
102
RTVSPropertyOp28
 70
     1
102
RTVSPropertyOp29
 70
     1
102
RTVSPropertyOp30
 70
     1
102
RTVSPropertyOp31
 70
     1
102
RTVSPropertyOp32
 70
     1
  0
XRECORD
  5
359
102
{ACAD_REACTORS
330
358
102
}
330
358
100
AcDbXrecord
280
     1
102
RTVSPropertyOp0
 70
     1
102
RTVSPropertyOp1
 70
     1
102
RTVSPropertyOp2
 70
     1
102
RTVSPropertyOp3
 70
     1
102
RTVSPropertyOp4
 70
     1
102
RTVSPropertyOp5
 70
     1
102
RTVSPropertyOp6
 70
     1
102
RTVSPropertyOp7
 70
     1
102
RTVSPropertyOp8
 70
     1
102
RTVSPropertyOp9
 70
     1
102
RTVSPropertyOp10
 70
     1
102
RTVSPropertyOp11
 70
     1
102
RTVSPropertyOp12
 70
     1
102
RTVSPropertyOp13
 70
     1
102
RTVSPropertyOp14
 70
     1
102
RTVSPropertyOp15
 70
     1
102
RTVSPropertyOp16
 70
     1
102
RTVSPropertyOp17
 70
     1
102
RTVSPropertyOp18
 70
     1
102
RTVSPropertyOp19
 70
     1
102
RTVSPropertyOp20
 70
     1
102
RTVSPropertyOp21
 70
     1
102
RTVSPropertyOp22
 70
     1
102
RTVSPropertyOp23
 70
     1
102
RTVSPropertyOp24
 70
     1
102
RTVSPropertyOp25
 70
     1
102
RTVSPropertyOp26
 70
     1
102
RTVSPropertyOp27
 70
     1
102
RTVSPropertyOp28
 70
     1
102
RTVSPropertyOp29
 70
     1
102
RTVSPropertyOp30
 70
     1
102
RTVSPropertyOp31
 70
     1
102
RTVSPropertyOp32
 70
     1
  0
XRECORD
  5
34D
102
{ACAD_REACTORS
330
34C
102
}
330
34C
100
AcDbXrecord
280
     1
102
RTVSPropertyOp0
 70
     1
102
RTVSPropertyOp1
 70
     1
102
RTVSPropertyOp2
 70
     1
102
RTVSPropertyOp3
 70
     1
102
RTVSPropertyOp4
 70
     1
102
RTVSPropertyOp5
 70
     1
102
RTVSPropertyOp6
 70
     1
102
RTVSPropertyOp7
 70
     1
102
RTVSPropertyOp8
 70
     1
102
RTVSPropertyOp9
 70
     1
102
RTVSPropertyOp10
 70
     1
102
RTVSPropertyOp11
 70
     1
102
RTVSPropertyOp12
 70
     1
102
RTVSPropertyOp13
 70
     1
102
RTVSPropertyOp14
 70
     1
102
RTVSPropertyOp15
 70
     1
102
RTVSPropertyOp16
 70
     1
102
RTVSPropertyOp17
 70
     1
102
RTVSPropertyOp18
 70
     1
102
RTVSPropertyOp19
 70
     1
102
RTVSPropertyOp20
 70
     1
102
RTVSPropertyOp21
 70
     1
102
RTVSPropertyOp22
 70
     1
102
RTVSPropertyOp23
 70
     1
102
RTVSPropertyOp24
 70
     1
102
RTVSPropertyOp25
 70
     1
102
RTVSPropertyOp26
 70
     1
102
RTVSPropertyOp27
 70
     1
102
RTVSPropertyOp28
 70
     1
102
RTVSPropertyOp29
 70
     1
102
RTVSPropertyOp30
 70
     1
102
RTVSPropertyOp31
 70
     1
102
RTVSPropertyOp32
 70
     1
  0
XRECORD
  5
34F
102
{ACAD_REACTORS
330
34E
102
}
330
34E
100
AcDbXrecord
280
     1
102
RTVSPropertyOp0
 70
     1
102
RTVSPropertyOp1
 70
     1
102
RTVSPropertyOp2
 70
     1
102
RTVSPropertyOp3
 70
     1
102
RTVSPropertyOp4
 70
     1
102
RTVSPropertyOp5
 70
     1
102
RTVSPropertyOp6
 70
     1
102
RTVSPropertyOp7
 70
     1
102
RTVSPropertyOp8
 70
     1
102
RTVSPropertyOp9
 70
     1
102
RTVSPropertyOp10
 70
     1
102
RTVSPropertyOp11
 70
     1
102
RTVSPropertyOp12
 70
     1
102
RTVSPropertyOp13
 70
     1
102
RTVSPropertyOp14
 70
     1
102
RTVSPropertyOp15
 70
     1
102
RTVSPropertyOp16
 70
     1
102
RTVSPropertyOp17
 70
     1
102
RTVSPropertyOp18
 70
     1
102
RTVSPropertyOp19
 70
     1
102
RTVSPropertyOp20
 70
     1
102
RTVSPropertyOp21
 70
     1
102
RTVSPropertyOp22
 70
     1
102
RTVSPropertyOp23
 70
     1
102
RTVSPropertyOp24
 70
     1
102
RTVSPropertyOp25
 70
     1
102
RTVSPropertyOp26
 70
     1
102
RTVSPropertyOp27
 70
     1
102
RTVSPropertyOp28
 70
     1
102
RTVSPropertyOp29
 70
     1
102
RTVSPropertyOp30
 70
     1
102
RTVSPropertyOp31
 70
     1
102
RTVSPropertyOp32
 70
     1
  0
XRECORD
  5
357
102
{ACAD_REACTORS
330
356
102
}
330
356
100
AcDbXrecord
280
     1
102
RTVSPropertyOp0
 70
     1
102
RTVSPropertyOp1
 70
     1
102
RTVSPropertyOp2
 70
     1
102
RTVSPropertyOp3
 70
     1
102
RTVSPropertyOp4
 70
     1
102
RTVSPropertyOp5
 70
     1
102
RTVSPropertyOp6
 70
     1
102
RTVSPropertyOp7
 70
     1
102
RTVSPropertyOp8
 70
     1
102
RTVSPropertyOp9
 70
     1
102
RTVSPropertyOp10
 70
     1
102
RTVSPropertyOp11
 70
     1
102
RTVSPropertyOp12
 70
     1
102
RTVSPropertyOp13
 70
     1
102
RTVSPropertyOp14
 70
     1
102
RTVSPropertyOp15
 70
     1
102
RTVSPropertyOp16
 70
     1
102
RTVSPropertyOp17
 70
     1
102
RTVSPropertyOp18
 70
     1
102
RTVSPropertyOp19
 70
     1
102
RTVSPropertyOp20
 70
     1
102
RTVSPropertyOp21
 70
     1
102
RTVSPropertyOp22
 70
     1
102
RTVSPropertyOp23
 70
     1
102
RTVSPropertyOp24
 70
     1
102
RTVSPropertyOp25
 70
     1
102
RTVSPropertyOp26
 70
     1
102
RTVSPropertyOp27
 70
     1
102
RTVSPropertyOp28
 70
     1
102
RTVSPropertyOp29
 70
     1
102
RTVSPropertyOp30
 70
     1
102
RTVSPropertyOp31
 70
     1
102
RTVSPropertyOp32
 70
     1
  0
XRECORD
  5
33B
102
{ACAD_REACTORS
330
33A
102
}
330
33A
100
AcDbXrecord
280
     1
102
RTVSPropertyOp0
 70
     1
102
RTVSPropertyOp1
 70
     1
102
RTVSPropertyOp2
 70
     1
102
RTVSPropertyOp3
 70
     1
102
RTVSPropertyOp4
 70
     1
102
RTVSPropertyOp5
 70
     1
102
RTVSPropertyOp6
 70
     1
102
RTVSPropertyOp7
 70
     1
102
RTVSPropertyOp8
 70
     1
102
RTVSPropertyOp9
 70
     1
102
RTVSPropertyOp10
 70
     1
102
RTVSPropertyOp11
 70
     1
102
RTVSPropertyOp12
 70
     1
102
RTVSPropertyOp13
 70
     1
102
RTVSPropertyOp14
 70
     1
102
RTVSPropertyOp15
 70
     1
102
RTVSPropertyOp16
 70
     1
102
RTVSPropertyOp17
 70
     1
102
RTVSPropertyOp18
 70
     1
102
RTVSPropertyOp19
 70
     1
102
RTVSPropertyOp20
 70
     1
102
RTVSPropertyOp21
 70
     1
102
RTVSPropertyOp22
 70
     1
102
RTVSPropertyOp23
 70
     1
102
RTVSPropertyOp24
 70
     1
102
RTVSPropertyOp25
 70
     1
102
RTVSPropertyOp26
 70
     1
102
RTVSPropertyOp27
 70
     1
102
RTVSPropertyOp28
 70
     1
102
RTVSPropertyOp29
 70
     1
102
RTVSPropertyOp30
 70
     1
102
RTVSPropertyOp31
 70
     1
102
RTVSPropertyOp32
 70
     1
  0
XRECORD
  5
33D
102
{ACAD_REACTORS
330
33C
102
}
330
33C
100
AcDbXrecord
280
     1
102
RTVSPropertyOp0
 70
     1
102
RTVSPropertyOp1
 70
     1
102
RTVSPropertyOp2
 70
     1
102
RTVSPropertyOp3
 70
     1
102
RTVSPropertyOp4
 70
     1
102
RTVSPropertyOp5
 70
     1
102
RTVSPropertyOp6
 70
     1
102
RTVSPropertyOp7
 70
     1
102
RTVSPropertyOp8
 70
     1
102
RTVSPropertyOp9
 70
     1
102
RTVSPropertyOp10
 70
     1
102
RTVSPropertyOp11
 70
     1
102
RTVSPropertyOp12
 70
     1
102
RTVSPropertyOp13
 70
     1
102
RTVSPropertyOp14
 70
     1
102
RTVSPropertyOp15
 70
     1
102
RTVSPropertyOp16
 70
     1
102
RTVSPropertyOp17
 70
     1
102
RTVSPropertyOp18
 70
     1
102
RTVSPropertyOp19
 70
     1
102
RTVSPropertyOp20
 70
     1
102
RTVSPropertyOp21
 70
     1
102
RTVSPropertyOp22
 70
     1
102
RTVSPropertyOp23
 70
     1
102
RTVSPropertyOp24
 70
     1
102
RTVSPropertyOp25
 70
     1
102
RTVSPropertyOp26
 70
     1
102
RTVSPropertyOp27
 70
     1
102
RTVSPropertyOp28
 70
     1
102
RTVSPropertyOp29
 70
     1
102
RTVSPropertyOp30
 70
     1
102
RTVSPropertyOp31
 70
     1
102
RTVSPropertyOp32
 70
     1
  0
XRECORD
  5
33F
102
{ACAD_REACTORS
330
33E
102
}
330
33E
100
AcDbXrecord
280
     1
102
RTVSPropertyOp0
 70
     1
102
RTVSPropertyOp1
 70
     1
102
RTVSPropertyOp2
 70
     1
102
RTVSPropertyOp3
 70
     1
102
RTVSPropertyOp4
 70
     1
102
RTVSPropertyOp5
 70
     1
102
RTVSPropertyOp6
 70
     1
102
RTVSPropertyOp7
 70
     1
102
RTVSPropertyOp8
 70
     1
102
RTVSPropertyOp9
 70
     1
102
RTVSPropertyOp10
 70
     1
102
RTVSPropertyOp11
 70
     1
102
RTVSPropertyOp12
 70
     1
102
RTVSPropertyOp13
 70
     1
102
RTVSPropertyOp14
 70
     1
102
RTVSPropertyOp15
 70
     1
102
RTVSPropertyOp16
 70
     1
102
RTVSPropertyOp17
 70
     1
102
RTVSPropertyOp18
 70
     1
102
RTVSPropertyOp19
 70
     1
102
RTVSPropertyOp20
 70
     1
102
RTVSPropertyOp21
 70
     1
102
RTVSPropertyOp22
 70
     1
102
RTVSPropertyOp23
 70
     1
102
RTVSPropertyOp24
 70
     1
102
RTVSPropertyOp25
 70
     1
102
RTVSPropertyOp26
 70
     1
102
RTVSPropertyOp27
 70
     1
102
RTVSPropertyOp28
 70
     1
102
RTVSPropertyOp29
 70
     1
102
RTVSPropertyOp30
 70
     1
102
RTVSPropertyOp31
 70
     1
102
RTVSPropertyOp32
 70
     1
  0
XRECORD
  5
341
102
{ACAD_REACTORS
330
340
102
}
330
340
100
AcDbXrecord
280
     1
102
RTVSPropertyOp0
 70
     1
102
RTVSPropertyOp1
 70
     1
102
RTVSPropertyOp2
 70
     1
102
RTVSPropertyOp3
 70
     1
102
RTVSPropertyOp4
 70
     1
102
RTVSPropertyOp5
 70
     1
102
RTVSPropertyOp6
 70
     1
102
RTVSPropertyOp7
 70
     1
102
RTVSPropertyOp8
 70
     1
102
RTVSPropertyOp9
 70
     1
102
RTVSPropertyOp10
 70
     1
102
RTVSPropertyOp11
 70
     1
102
RTVSPropertyOp12
 70
     1
102
RTVSPropertyOp13
 70
     1
102
RTVSPropertyOp14
 70
     1
102
RTVSPropertyOp15
 70
     1
102
RTVSPropertyOp16
 70
     1
102
RTVSPropertyOp17
 70
     1
102
RTVSPropertyOp18
 70
     1
102
RTVSPropertyOp19
 70
     1
102
RTVSPropertyOp20
 70
     1
102
RTVSPropertyOp21
 70
     1
102
RTVSPropertyOp22
 70
     1
102
RTVSPropertyOp23
 70
     1
102
RTVSPropertyOp24
 70
     1
102
RTVSPropertyOp25
 70
     1
102
RTVSPropertyOp26
 70
     1
102
RTVSPropertyOp27
 70
     1
102
RTVSPropertyOp28
 70
     1
102
RTVSPropertyOp29
 70
     1
102
RTVSPropertyOp30
 70
     1
102
RTVSPropertyOp31
 70
     1
102
RTVSPropertyOp32
 70
     1
  0
XRECORD
  5
355
102
{ACAD_REACTORS
330
354
102
}
330
354
100
AcDbXrecord
280
     1
102
RTVSPropertyOp0
 70
     1
102
RTVSPropertyOp1
 70
     1
102
RTVSPropertyOp2
 70
     1
102
RTVSPropertyOp3
 70
     1
102
RTVSPropertyOp4
 70
     1
102
RTVSPropertyOp5
 70
     1
102
RTVSPropertyOp6
 70
     1
102
RTVSPropertyOp7
 70
     1
102
RTVSPropertyOp8
 70
     1
102
RTVSPropertyOp9
 70
     1
102
RTVSPropertyOp10
 70
     1
102
RTVSPropertyOp11
 70
     1
102
RTVSPropertyOp12
 70
     1
102
RTVSPropertyOp13
 70
     1
102
RTVSPropertyOp14
 70
     1
102
RTVSPropertyOp15
 70
     1
102
RTVSPropertyOp16
 70
     1
102
RTVSPropertyOp17
 70
     1
102
RTVSPropertyOp18
 70
     1
102
RTVSPropertyOp19
 70
     1
102
RTVSPropertyOp20
 70
     1
102
RTVSPropertyOp21
 70
     1
102
RTVSPropertyOp22
 70
     1
102
RTVSPropertyOp23
 70
     1
102
RTVSPropertyOp24
 70
     1
102
RTVSPropertyOp25
 70
     1
102
RTVSPropertyOp26
 70
     1
102
RTVSPropertyOp27
 70
     1
102
RTVSPropertyOp28
 70
     1
102
RTVSPropertyOp29
 70
     1
102
RTVSPropertyOp30
 70
     1
102
RTVSPropertyOp31
 70
     1
102
RTVSPropertyOp32
 70
     1
  0
XRECORD
  5
34B
102
{ACAD_REACTORS
330
34A
102
}
330
34A
100
AcDbXrecord
280
     1
102
RTVSPropertyOp0
 70
     1
102
RTVSPropertyOp1
 70
     1
102
RTVSPropertyOp2
 70
     1
102
RTVSPropertyOp3
 70
     1
102
RTVSPropertyOp4
 70
     1
102
RTVSPropertyOp5
 70
     1
102
RTVSPropertyOp6
 70
     1
102
RTVSPropertyOp7
 70
     1
102
RTVSPropertyOp8
 70
     1
102
RTVSPropertyOp9
 70
     1
102
RTVSPropertyOp10
 70
     1
102
RTVSPropertyOp11
 70
     1
102
RTVSPropertyOp12
 70
     1
102
RTVSPropertyOp13
 70
     1
102
RTVSPropertyOp14
 70
     1
102
RTVSPropertyOp15
 70
     1
102
RTVSPropertyOp16
 70
     1
102
RTVSPropertyOp17
 70
     1
102
RTVSPropertyOp18
 70
     1
102
RTVSPropertyOp19
 70
     1
102
RTVSPropertyOp20
 70
     1
102
RTVSPropertyOp21
 70
     1
102
RTVSPropertyOp22
 70
     1
102
RTVSPropertyOp23
 70
     1
102
RTVSPropertyOp24
 70
     1
102
RTVSPropertyOp25
 70
     1
102
RTVSPropertyOp26
 70
     1
102
RTVSPropertyOp27
 70
     1
102
RTVSPropertyOp28
 70
     1
102
RTVSPropertyOp29
 70
     1
102
RTVSPropertyOp30
 70
     1
102
RTVSPropertyOp31
 70
     1
102
RTVSPropertyOp32
 70
     1
  0
XRECORD
  5
353
102
{ACAD_REACTORS
330
352
102
}
330
352
100
AcDbXrecord
280
     1
102
RTVSPropertyOp0
 70
     1
102
RTVSPropertyOp1
 70
     1
102
RTVSPropertyOp2
 70
     1
102
RTVSPropertyOp3
 70
     1
102
RTVSPropertyOp4
 70
     1
102
RTVSPropertyOp5
 70
     1
102
RTVSPropertyOp6
 70
     1
102
RTVSPropertyOp7
 70
     1
102
RTVSPropertyOp8
 70
     1
102
RTVSPropertyOp9
 70
     1
102
RTVSPropertyOp10
 70
     1
102
RTVSPropertyOp11
 70
     1
102
RTVSPropertyOp12
 70
     1
102
RTVSPropertyOp13
 70
     1
102
RTVSPropertyOp14
 70
     1
102
RTVSPropertyOp15
 70
     1
102
RTVSPropertyOp16
 70
     1
102
RTVSPropertyOp17
 70
     1
102
RTVSPropertyOp18
 70
     1
102
RTVSPropertyOp19
 70
     1
102
RTVSPropertyOp20
 70
     1
102
RTVSPropertyOp21
 70
     1
102
RTVSPropertyOp22
 70
     1
102
RTVSPropertyOp23
 70
     1
102
RTVSPropertyOp24
 70
     1
102
RTVSPropertyOp25
 70
     1
102
RTVSPropertyOp26
 70
     1
102
RTVSPropertyOp27
 70
     1
102
RTVSPropertyOp28
 70
     1
102
RTVSPropertyOp29
 70
     1
102
RTVSPropertyOp30
 70
     1
102
RTVSPropertyOp31
 70
     1
102
RTVSPropertyOp32
 70
     1
  0
ENDSEC
  0
SECTION
  2
THUMBNAILIMAGE
 90
    16364
310
28000000B40000005500000001000800000000000000000000000000000000000000000000000000FFFFFF00FF000000FFFF000000FF000000FFFF000000FF00FF00FF000000000080808000C0C0C000FF000000FF7F7F00A5000000A55252007F0000007F3F3F004C0000004C2626002600000026131300FF3F0000FF9F7F
310
00A5290000A56752007F1F00007F4F3F004C1300004C2F26002609000026171300FF7F0000FFBF7F00A5520000A57C52007F3F00007F5F3F004C2600004C39260026130000261C1300FFBF0000FFDF7F00A57C0000A59152007F5F00007F6F3F004C3900004C422600261C000026211300FFFF0000FFFF7F00A5A50000A5A5
310
52007F7F00007F7F3F004C4C00004C4C26002626000026261300BFFF0000DFFF7F007CA5000091A552005F7F00006F7F3F00394C0000424C26001C260000212613007FFF0000BFFF7F0052A500007CA552003F7F00005F7F3F00264C0000394C2600132600001C2613003FFF00009FFF7F0029A5000067A552001F7F00004F
310
7F3F00134C00002F4C2600092600001726130000FF00007FFF7F0000A5000052A55200007F00003F7F3F00004C0000264C2600002600001326130000FF3F007FFF9F0000A5290052A56700007F1F003F7F4F00004C1300264C2F00002609001326170000FF7F007FFFBF0000A5520052A57C00007F3F003F7F5F00004C2600
310
264C39000026130013261C0000FFBF007FFFDF0000A57C0052A59100007F5F003F7F6F00004C3900264C420000261C001326210000FFFF007FFFFF0000A5A50052A5A500007F7F003F7F7F00004C4C00264C4C00002626001326260000BFFF007FDFFF00007CA5005291A500005F7F003F6F7F0000394C0026424C00001C26
310
0013212600007FFF007FBFFF000052A500527CA500003F7F003F5F7F0000264C0026394C0000132600131C2600003FFF007F9FFF000029A5005267A500001F7F003F4F7F0000134C00262F4C0000092600131726000000FF007F7FFF000000A5005252A50000007F003F3F7F0000004C0026264C0000002600131326003F00
310
FF009F7FFF002900A5006752A5001F007F004F3F7F0013004C002F264C0009002600171326007F00FF00BF7FFF005200A5007C52A5003F007F005F3F7F0026004C0039264C00130026001C132600BF00FF00DF7FFF007C00A5009152A5005F007F006F3F7F0039004C0042264C001C00260021132600FF00FF00FF7FFF00A5
310
00A500A552A5007F007F007F3F7F004C004C004C264C002600260026132600FF00BF00FF7FDF00A5007C00A55291007F005F007F3F6F004C0039004C26420026001C0026132100FF007F00FF7FBF00A5005200A5527C007F003F007F3F5F004C0026004C2639002600130026131C00FF003F00FF7F9F00A5002900A5526700
310
7F001F007F3F4F004C0013004C262F002600090026131700000000002D2D2D005B5B5B0089898900B7B7B700B3B3B30000000000000000000000000000000000000000000000000000000000000000000000000000000000000000000000000000000000000000000000000000000000000000000000000000000000000000
310
00000000000000000000000000000000000000000000000000000000000000000000000000000000000000000000000000000000000000000000000000000000000000000000000000000000000000000000000000000000000000000000000000000000000000000000000000000000000000000000000000000000000000
310
00000000000000000000000000000000000000000000000000000000000000000000000000000000000000000000000000000000000000000000000000000000000000000000000000000000000000000000000000000000000000000000000000000000000000000000000000000000000000000000000000000000000000
310
00000000000000000000000000000000000000000000000000000000000000000000000000000000000000000000000000000000000000000000000000000000000000000000000000000000000000000000000000000000000000000000000000000000000000000000000000000000000000000000000000000000000000
310
00000000000000000000000000000000000000000000000000000000000000000000000000000000000000000000000000000000000000000000000000000000000000000000000000000000000000000000000000000000000000000000000000000000000000000000000000000000000000000000000000000000000000
310
00000000000000000000000000000000000000000000000000000000000000000000000000000000000000000000000000000000000000000000000000000000000000000000000000000000000000000000000000000000000000000000000000000000000000000000000000000000000000000000000000000000000000
310
00000000000000000000000000000000000000000000000000000000000000000000000000000000000000000000000000000000000000000000000000000000000000000000000000000000000000000000000000000000000000000000000707070707070707070707070707070707070707070707070700000000000000
310
00000000000000000000000000000000000000000000000000000000000000000000000000000000000000000000000000000000000000000000000000000000000000000000000000000000000000000000000000000000000000000000000000000000000000000000000000000000000000000000000000000000000000
310
00000000000000000000000000000000000000000007070707070700000000000707070707070700000000000007000000000000000000000000000000000000000000000000000000000000000000000000000000000000000000000000000000000000000000000000000000000000000000000000000000000000000000
310
00000000000000000000000000000000000000000000000000000000000000000000000000000000000000000000000000000000000000000000000000000000000000000000000000000700000000070000000000000000000000000000000000000700000000000000000000000000000000000000000000000000000000
310
00000000000000000000000000000000000000000000000000000000000000000000000000000000000000000000000000000000000000000000000000000000000000000000000000000000000000000000000000000000000000000000000000000000000000000000000000000000000000000000000000000000000000
310
07070707070707070707070707070707070707070707070707000000000000000000000000000000000000000000000000000000000000000000000000000000000000000000000000000000000000000000000000000000000000000000000000000000000000000000000000000000000000000000000000000000000000
310
00000000000000000000000000000000000000000000000000000000000000000000000000000000000000000000000000000000000707070707070000000000070707070707070700000000000700000000000000000000000000000000000000000000000000000000000000000000000000000000000000000000000000
310
00000000000000000000000000000000000000000000000000000000000000000000000000000000000000000000000000000000000000000000000000000000000000000000000000000000000000000000000000000000000000000000000000000000000000000000070707070707000000070707070707070707070700
310
00000007000000000000000000000000000000000000000000000000000000000000000000000000000000000000000000000000000000000000000000000000000000000000000000000000000000000000000000000000000000000000000000000000000000000000000000000000000000000000000000000000000000
310
00000000000000000000000000000000000000000000000000000000000000000700000000070000000007070700070707070700000000000700000000000000000000000000000000000000000000000000000000000000000000000000000000000000000000000000000000000000000000000000000000000000000000
310
00000000000000000000000000000000000000000000000000000000000000000000000000000000000000000000000000000000000000000000000000000000000000000000000000000000000000000000000000070000000007000000000000000000000000000000000000070000000000000000000000000000000000
310
00000000000000000000000000000000000000000000000000000000000000000000000000000000000000000000000000000000000000000000000000000000000000000000000000000000000000000000000000000000000000000000000000000000000000000000000000000000000000000000000000000000000000
310
00000000000000000000000707070707070707070707070707070707070707070707070700000000000000000000000000000000000000000000000000000000000000000000000000000000000000000000000000000000000000000000000000000000000000000000000000000000000000000000000000000000000000
310
00000000000000000000000000000000000000000000000000000000000000000000000000000000000000000000000000000000000000000000000000000000000000000000000000000000000000000000000000000000000000000000000000000000000000000000000000000000000000000000000000000000000000
310
00000000000000000000000000000000000000000000000000000000000000000000000000000000000000000000000000000000000000000000000000000000000000000000000000000000000000000000000000000000000000000000000000000000000000000000000000000000000000000000000000000000000000
310
00000000000000000000000000000000000000000000000000000000000000000000000000000000000000000000000000000000000000000000000000000000000000000000000000000000000000000000000000000000000000000000000000000000000000000000000000000000000000000000000000000000000000
310
00000000000000000000000000000000000000000000000000000000000000000000000000000000000000000000000000000000000000000000000000000000000000000000000000000000000000000000000000000000000000000000000000000000000000000000000000000000000000000000000000000000000000
310
00000000000000000000000000000000000000000000000000000000000000000000000000000000000000000000000000000000000000000000000000000000000000000000000000000000000000000000000000000000000000000000000000000000000000000000000000000000000000000000000000000000000000
310
00000000000000000000000000000000000000000000000000000000000000000000000000000000000000000000000000000000000000000000000000000000000000000000000000000000000000000000000000000000000000000000000000000000000000000000000000000000000000000000000000000000000000
310
00000000000000000000000000000000000000000000000000000000000000000000000000000000000000000000000000000000000000000000000000000000000000000000000000000000000000000000000000000000000000000000000000000000000000000000000000000000000000000000000000000000000000
310
00000000000000000000000000000000000000000000000000000000000000000000000000000000000000000000000000000000000000000000000000000000000000000000000000000000000000000000000000000000000000000000000000000000000000000000000000000000000000000000000000000000000000
310
00000000000000000000000000000000000000000000000000000000000000000000000000000000000000000000000000000000000000000000000000000000000000000000000000000000000000000000000000000000000000000000000000000000000000000000000000000000000000000000000000000000000000
310
00000000000000000000000000000000000000000000000000000000000000000000000000000000000000000000000000000000000000000000000000000000000000000000000000000000000000000000000000000000000000000000000000000000000000000000000000000000000000000000000000000000000000
310
00000000000000000000000000000000000000000000000000000000000000000000000000000000000000000000000000000000000000000000000000000000000000000000000000000000000000000000000000000000000000000000000000000000000000000000000000000000000000000000000000000000000000
310
00000000000000000000000000000000000000000000000000000000000000000000000000000000000000000000000000000000000000000000000000000000000000000000000000000000000000000000000000000000000000000000000000000000000000000000000000000000000000000000000000000000000000
310
00000000000000000000000000000000000000000000000000000000000000000000000000000000000000000000000000000000000000000000000000000000000000000000000000000000000000000000000000000000000000000000000000000000000000000000000000000000000000000000000000000000000000
310
00000000000000000000000000000000000000000000000000000000000000000000000000000000000000000000000000000000000000000000000000000000000000000000000000000000000000000000000000000000000000000000000000000000000000000000000000000000000000000000000000000000000000
310
00000000000000000000000000000000000000000000000000000000000000000000000000000000000000000000000000000000000000000000000000000000000000000000000000000000000000000000000000000000000000000000000000000000000000000000000000000000000000000000000000000000000000
310
00000000000000000000000000000000000000000000000000000000000000000000000000000000000000000000000000000000000000000000000000000000000000000000000000000000000000000000000000000000000000000000000000000000000000000000000000000000000000000000000000000000000000
310
00000000000000000000000000000000000000000000000000000000000000000000000000000000000000000000000000000000000000000000000000000000000000000000000000000000000000000000000000000000000000000000000000000000000000000000000000000000000000000000000000000000000000
310
00000000000000000000000000000000000000000000000000000000000000000000000000000000000000000000000000000000000000000000000000000000000000000000000000000000000000000000000000000000000000000000000000000000000000000000000000000000000000000000000000000000000000
310
00000000000000000000000000000000000000000000000000000000000000000000000000000000000000000000000000000000000000000000000000000000000000000000000000000000000000000000000000000000000000000000000000000000000000000000000000000000000000000000000000000000000000
310
00000000000000000000000000000000000000000000000000000000000000000000000000000000000000000000000000000000000000000000000000000000000000000000000000000000000000000000000000000000000000000000000000000000000000000000000000000000000000000000000000000000000000
310
00000000000000000000000000000000000000000000000000000000000000000000000000000000000000000000000000000000000000000000000000000000000000000000000000000000000000000000000000000000000000000000000000000000000000000000000000000000000000000000000000000000000000
310
00000000000000000000000000000000000000000000000000000000000000000000000000000000000000000000000000000000000000000000000000000000000000000000000000000000000000000000000000000000000000000000000000000000000000000000000000000000000000000000000000000000000000
310
00000000000000000000000000000000000000000000000000000000000000000000000000000000000000000000000000000000000000000000000000000000000000000000000000000000000000000000000000000000000000000000000000000000000000000000000000000000000000000000000000000000000000
310
00000000000000000000000000000000000000000000000000000000000000000000000000000000000000000000000000000000000000000000000000000000000000000000000000000000000000000000000000000000000000000000000000000000000000000000000000000000000000000000000000000000000000
310
00000000000000000000000000000000000000000000000000000000000000000000000000000000000000000000000000000000000000000000000000000000000000000000000000000000000000000000000000000000000000000000000000000000000000000000000000000000000000000000000000000000000000
310
00000000000000000000000000000000000000000000000000000000000000000000000000000000000000000000000000000000000000000000000000000000000000000000000000000000000000000000000000000000000000000000000000000000000000000000000000000000000000000000000000000000000000
310
00000000000000000000000000000000000000000000000000000000000000000000000000000000000000000000000000000000000000000000000000000000000000000000000000000000000000000000000000000000000000000000000000000000000000000000000000000000000000000000000000000000000000
310
00000000000000000000000000000000000000000000000000000000000000000000000000000000000000000000000000000000000000000000000000000000000000000000000000000000000000000000000000000000000000000000000000000000000000000000000000000000000000000000000000000000000000
310
00000000000000000000000000000000000000000000000000000000000000000000000000000000000000000000000000000000000000000000000000000000000000000000000000000000000000000000000000000000000000000000000000000000000000000000000000000000000000000000000000000000000000
310
00000000000000000000000000000000000000000000000000000000000000000000000000000000000000000000000000000000000000000000000000000000000000000000000000000000000000000000000000000000000000000000000000000000000000000000000000000000000000000000000000000000000000
310
00000000000000000000000000000000000000000000000000000000000000000000000000000000000000000000000000000000000000000000000000000000000000000000000000000000000000000000000000000000000000000000000000000000000000000000000000000000000000000000000000000000000000
310
00000000000000000000000000000000000000000000000000000000000000000000000000000000000000000000000000000000000000000000000000000000000000000000000000000000000000000000000000000000000000000000000000000000000000000000000000000000000000000000000000000000000000
310
00000000000000000000000000000000000000000000000000000000000000000000000000000000000000000000000000000000000000000000000000000000000000000000000000000000000000000000000000000000000000000000000000000000000000000000000000000000000000000000000303030303030303
310
03030303030303030303040303030303030303030303030303030303000000000000000000000000000000000000000000000000000000000000000000000000000000000000000000000000000000000000000000000000000000000000000000000000000000000000000000000000000000000000000000000000000000
310
00000000000000000000000000000000000000000000000000000000000000000000000000000000000000000003000000000003030303030000000003030304030300000000030303030300000000000003000000000000000000000000000000000000000000000000000000000000000000000000000000000000000000
310
00000000000000000000000000000000000000000000000000000000000000000000000000000000000000000000000000000000000000000000000000000000000000000000000000000000000000000000000000000000000000000000000000030300000000030303030303030000000300030403030000000003030303
310
03030000000000030000000000000000000000000000000000000000000000000000000000000000000000000000000000000000000000000000000000000000000000000000000000000000000000000000000000000000000000000000000000000000000000000000000000000000000000000000000000000000000000
310
00000000000000000000000000000000000000000000000303000000000303030303030300000003030304030303000007030303030303000000000003000000000000000000000000000000000000000000000000000000000000000000000000000000000000000000000000000000000000000000000000000000000000
310
00000000000000000000000000000000000000000000000000000000000000000000000000000000000000000000000000000000000000000000000000000000000000000000000000000000030300000000030303030303070000000300030400030700000703000303000300000000000300000000000000000000000000
310
00000000000000000000000000000000000000000000000000000000000000000000000000000000000000000000000000000000000000000000000000000000000000000000000000000000000000000000000000000000000000000000000000000000000000000000000000000000000000000000000000000000000000
310
00000303000000000303030303030303000003030304000303000303030003030303000000000003000000000000000000000000000000000000000000000000000000000000000000000000000000000000000000000000000000000000000000000000000000000000000000000000000000000000000000000000000000
310
00000000000000000000000000000000000000000000000000000000000000000000000000000000000000000000000000000000000000030300000000000303030303030300000303030403030000030303030303030000000000000300000000000000000000000000000000000000000000000000000000000000000000
310
00000000000000000000000000000000000000000000000000000000000000000000000000000000000000000000000000000000000000000000000000000000000000000000000000000000000000000000000000000000000000000000000000000000000000000000000003034607074646460307464646464646464607
310
04464646464646460307464646460707464603000000000000000000000000000000000000000000000000000000000000000000000000000000000000000000000000000000000000000000000000000000000000000000000000000000000000000000000000000000000000000000000000000000000000000000000000
310
00000000000000000000000000000000000000000000000000000000000000000000000000070707000000000000000000000000000400000000000000000000000000070707000000000000000000000000000000000000000000000000000000000000000000000000000000000000000000000000000000000000000000
310
00000000000000000000000000000000000000000000000000000000000000000000000000000000000000000000000000000000000000000000000000000000000000000000000000000000000000000000000000000000000000000000000000000000000000000000000000000000000000000000000000000000000000
310
00000000000000000000000000000000000000000000000000000000000000000000000000000000000000000000000000000000000000000000000000000000000000000000000000000000000000000000000000000000000000000000000000000000000000000000000000000000000000000000000000000000000000
310
00000000000000000000000000000000000000000000000000000000000000000000000000000000000000000000000000000000000000000000000000000000000000000000000000000000000000000000000000000000000000000000000000000000000000000000000000000000000000000000000000000000000000
310
00000000000000000000000000000000000000000000000000000000000000000000000000000000000000000000000000000000000000000000000000000000000000000000000000000000000000000000000000000000000000000000000000000000000000000000000000000000000000000000000000000000000000
310
00000000000000000000000000000000000000000000000000000000000000000000000000000000000000000000000000000000000000000000000000000000000000000000000000000000000000000000000000000000000000000000000000000000000000000000000000000000000000000000000000000000000000
310
00000000000000000000000000000000000000000000000000000000000000000000000000000000000000000000000000000000000000000000000000000000000000000000000000000000000000000000000000000000000000000000000000000000000000000000000000000000000000000000000000000000000000
310
00000000000000000000000000000000000000000000000000000000000000000000000000000000000000000000000000000000000000000000000000000000000000000000000000000000000000000000000000000000000000000000000000000000000000000000000000000000000000000000000000000000000000
310
00000000000000000000000000000000000000000000000000000000000000000000000000000000000000000000000000000000000000000000000000000000000000000000000000000000000000000000000000000000000000000000000000000000000000000000000000000000000000000000000000000000000000
310
00000000000000000000000000000000000000000000000000000000000000000000000000000000000000000000000000000000000000000000000000000000000000000000000000000000000000000000000000000000000000000000000000000000000000000000000000000000000000000000000000000000000000
310
00000000000000000000000000000000000000000000000000000000000000000000000000000000000000000000000000000000000000000000000000000000000000000000000000000000000000000000000000000000000000000000000000000000000000000000000000000000000000000000000000000000000000
310
00000000000000000000000000000000000000000000000000000000000000000000000000000000000000000000000000000000000000000000000000000000000000000000000000000000000000000000000000000000000000000000000000000000000000000000000000000000000000000000000000000000000000
310
00000000000000000000000000000000000000000000000000000000000000000000000000000000000000000000000000000000000000000000000000000000000000000000000000000000000000000000000000000000000000000000000000000000000000000000000000000000000000000000000000000000000000
310
00000000000000000000000000000000000000000000000000000000000000000000000000000000000000000000000000000000000000000000000000000000000000000000000000000000000000000000000000000000000000000000000000000000000000000000000000000000000000000000000000000000000000
310
00000000000000000000000000000000000000000000000000000000000000000000000000000000000000000000000000000000000000000000000000000000000000000000000000000000000000000000000000000000000000000000000000000000000000000000000000000000000000000000000000000000000000
310
00000000000000000000000000000000000000000000000000000000000000000000000000000000000000000000000000000000000000000000000000000000000000000000000000000000000000000000000000000000000000000000000000000000000000000000000000000000000000000000000000000000000000
310
00000000000000000000000000000000000000000000000000000000000000000000000000000000000000000000000000000000000000000000000000000000000000000000000000000000000000000000000000000000000000000000000000000000000000000000000000000000000000000000000000000000000000
310
00000000000000000000000000000000000000000000000000000000000000000000000000000000000000000000000000000000000000000000000000000000000000000000000000000000000000000000000000000000000000000000000000000000000000000000000000000000000000000000000000000000000000
310
00000000000000000000000000000000000000000000000000000000000000000000000000000000000000000000000000000000000000000000000000000000000000000000000000000000000000000000000000000000000000000303000000000000000000000000000000000000000000000000000003030000000000
310
00000000000000000000000000000000000000000000000000000000000000000000000000000000000000000000000000000000000000000000000000000000000000000000000000000000000000000000000000000000000000000000000000000000000000000000000000000000000000000000000000000000000000
310
00000000000000000000000000000003030707030303030303030303460303030303030303464603030303030303030707030303000000000000000000000000000000000000000000000000000000000000000000000000000000000000000000000000000000000000000000000000000000000000000000000000000000
310
00000000000000000000000000000000000000000000000000000000000000000000000000000000000000000000000000000000000000000000000000000000000000030300070707000101010101000003000001010101000000000001010101010000070707030300000000000000000000000000000000000000000000
310
00000000000000000000000000000000000000000000000000000000000000000000000000000000000000000000000000000000000000000000000000000000000000000000000000000000000000000000000000000000000000000000000000000000000000000000000000000000000000000000000003030007070000
310
00000000000000030000000000000000000000000000000000000707000303000000000000000000000000000000000000000000000000000000000000000000000000000000000000000000000000000000000000000000000000000000000000000000000000000000000000000000000000000000000000000000000000
310
00000000000000000000000000000000000000000000000000000000000000000000000000000000000000000000000300000000000000000000000003000000000000000000000000000000000000000000030300000000000000000000000000000000000000000000000000000000000000000000000000000000000000
310
00000000000000000000000000000000000000000000000000000000000000000000000000000000000000000000000000000000000000000000000000000000000000000000000000000000000000000000000000000000000000000000000000000000030000000000000000000000000300000000000000000000000000
310
00000000000000000303000000000000000000000000000000000000000000000000000000000000000000000000000000000000000000000000000000000000000000000000000000000000000000000000000000000000000000000000000000000000000000000000000000000000000000000000000000000000000000
310
00000000000000000000000000000000000000000000000000000101000000000000030300000003000000000000000000000000030300000000000001010300000000000000000000000000000000000000000000000000000000000000000000000000000000000000000000000000000000000000000000000000000000
310
00000000000000000000000000000000000000000000000000000000000000000000000000000000000000000000000000000000000000000000000000000000000000000000000000000000000003030100000000000003030000000300000000000000000000000003030000000000000103030000000000000000000000
310
00000000000000000000000000000000000000000000000000000000000000000000000000000000000000000000000000000000000000000000000000000000000000000000000000000000000000000000000000000000000000000000000000000000000000000000000000000000000000000000000000000000000000
310
00000000030301000000000000000000000003000000039600000000000000000000000000000001030300000000000000000000000000000000000000000000000000000000000000000000000000000000000000000000000000000000000000000000000000000000000000000000000000000000000000000000000000
310
00000000000000000000000000000000000000000000000000000000000000000000000000000000000000000000000000000000000000000000030100000000000000000000000300000003960000000000000000000000000000000103030000000000000000000000000000000000000000000000000000000000000000
310
00000000000000000000000000000000000000000000000000000000000000000000000000000000000000000000000000000000000000000000000000000000000000000000000000000000000000000000000000000000000000000000000000000000000000000000000000000001010000000000000000000000030000
310
00009600000000000000000000000000000001010300000000000000000000000000000000000000000000000000000000000000000000000000000000000000000000000000000000000000000000000000000000000000000000000000000000000000000000000000000000000000000000000000000000000000000000
310
00000000000000000000000000000000000000000000000000000000000000000000000000030000000000000000000000000300000003960000000000000000000000000000000003030000000000000000000000000000000000000000000000000000000000000000000000000000000000000000000000000000000000
310
00000000000000000000000000000000000000000000000000000000000000000000000000000000000000000000000000000000000000000000000000000000000000000000000000000000000000000000000000000000009696969696969696969696969696969696969696969696969696969696969696969696969696
310
00000000000000000000000000000000000000000000000000000000000000000000000000000000000000000000000000000000000000000000000000000000000000000000000000000000000000000000000000000000000000000000000000000000000000000000000000000000000000000000000000000000000000
310
00000000000000000000000000000000030000000000000003030000000300000003960000004600000003030000000000000003030000000000000000000000000000000000000000000000000000000000000000000000000000000000000000000000000000000000000000000000000000000000000000000000000000
310
00000000000000000000000000000000000000000000000000000000000000000000000000000000000000000000000000000000000000000000000000000000000000000003000000000000000000000000030000000096000000000000000000000000000000000303000000000000000000000000000000000000000000
310
00000000000000000000000000000000000000000000000000000000000000000000000000000000000000000000000000000000000000000000000000000000000000000000000000000000000000000000000000000000000000000000000000000000000000000000000000000000000000000000000000000101000000
310
00000000000000000300000000960000000000000000000000000000000103030000000000000000000000000000000000000000000000000000000000000000000000000000000000000000000000000000000000000000000000000000000000000000000000000000000000000000000000000000000000000000000000
310
00000000000000000000000000000000000000000000000000000000000000000000000000000000000000000000000303010000000000000000000000030000000396000000000000000000000000000000010303000000000000000000000000000000000000000000000000000000000000000000000000000000000000
310
00000000000000000000000000000000000000000000000000000000000000000000000000000000000000000000000000000000000000000000000000000000000000000000000000000000000000000000000000000000000000000000000000000000030301000000000000000000000003000000009600000000000000
310
00000000000000000103030000000000000000000000000000000000000000000000000000000000000000000000000000000000000000000000000000000000000000000000000000000000000000000000000000000000000000000000000000000000000000000000000000000000000000000000000000000000000000
310
00000000000000000000000000000000000000000000000000000001010000000000000303000000030000000000000000000000000303000000000000010303000000000000000000000000000000000000000000000000000000000000000000000000000000000000000000000000000000000000000000000000000000
310
00000000000000000000000000000000000000000000000000000000000000000000000000000000000000000000000000000000000000000000000000000000000000000000000000000000000000000300000000000000030300000003000000000000000000000000030300000000000000030300000000000000000000
310
00000000000000000000000000000000000000000000000000000000000000000000000000000000000000000000000000000000000000000000000000000000000000000000000000000000000000000000000000000000000000000000000000000000000000000000000000000000000000000000000000000000000000
310
00000000000003000000000000000000000000030000000000000000000000000000000000000000000303000000000000000000000000000000000000000000000000000000000000000000000000000000000000000000000000000000000000000000000000000000000000000000000000000000000000000000000000
310
00000000000000000000000000000000000000000000000000000000000000000000000000000000000000000000000000000000000000000000000300000000000000000000000003000000000000000000000000000000000000000000030300000000000000000000000000000000000000000000000000000000000000
310
00000000000000000000000000000000000000000000000000000000000000000000000000000000000000000000000000000000000000000000000000000000000000000000000000000000000000000000000000000000000000000000000000000000000000000000000000000003030007070300010101010100000300
310
00010101010000000000010101010100000707030303000000000000000000000000000000000000000000000000000000000000000000000000000000000000000000000000000000000000000000000000000000000000000000000000000000000000000000000000000000000000000000000000000000000000000000
310
00000000000000000000000000000000000000000000000000000000000000000000000000000303070707030303030303030346030303030303030346460303030303030303070707030300000000000000000000000000000000000000000000000000000000000000000000000000000000000000000000000000000000
310
00000000000000000000000000000000000000000000000000000000000000000000000000000000000000000000000000000000000000000000000000000000000000000000000000000000000000000000000000000000000000030303030303030303030303030303030303030303030303030303030303030303030303
310
00000000000000000000000000000000000000000000000000000000000000000000000000000000000000000000000000000000000000000000000000000000000000000000000000000000000000000000000000000000000000000000000000000000000000000000000000000000000000000000000000000000000000
310
00000000000000000000000000000000000000000000000000000000000000000000000000000000000000000000000000000000000000000000000000000000000000000000000000000000000000000000000000000000000000000000000000000000000000000000000000000000000000000000000000000000000000
310
00000000000000000000000000000000000000000000000000000000000000000000000000000000000000000000000000000000000000000000000000000000000000000000000000000000000000000000000000000000000000000000000000000000000000000000000000000000000000000000000000000000000000
310
00000000000000000000000000000000000000000000000000000000000000000000000000000000000000000000000000000000000000000000000000000000000000000000000000000000000000000000000000000000000000000000000000000000000000000000000000000000000000000000000000000000000000
310
000000000000000000000000000000000000000000000000000000000000000000000000000000000000000000000000000000000000000000000000000000000000000000000000000000000000000000000000000000000000000000000000000000000000000000000000
  0
ENDSEC
  0
EOF
