  0
SECTION
  2
HEADER
  9
$ACADVER
  1
AC1015
  9
$ACADMAINTVER
 70
     6
  9
$DWGCODEPAGE
  3
ANSI_932
  9
$INSBASE
 10
0.0
 20
0.0
 30
0.0
  9
$EXTMIN
 10
44.06836804056802
 20
20.0
 30
0.0
  9
$EXTMAX
 10
186.0
 20
273.8923451662372
 30
0.0
  9
$LIMMIN
 10
44.06836804056802
 20
20.0
  9
$LIMMAX
 10
186.0
 20
273.8923451662372
  9
$ORTHOMODE
 70
     0
  9
$REGENMODE
 70
     1
  9
$FILLMODE
 70
     1
  9
$QTEXTMODE
 70
     0
  9
$MIRRTEXT
 70
     1
  9
$LTSCALE
 40
0.1466045037705307
  9
$ATTMODE
 70
     1
  9
$TEXTSIZE
 40
2.5
  9
$TRACEWID
 40
1.0
  9
$TEXTSTYLE
  7
Standard
  9
$CLAYER
  8
0
  9
$CELTYPE
  6
ByLayer
  9
$CECOLOR
 62
   256
  9
$CELTSCALE
 40
1.0
  9
$DISPSILH
 70
     0
  9
$DIMSCALE
 40
1.0
  9
$DIMASZ
 40
2.5
  9
$DIMEXO
 40
0.625
  9
$DIMDLI
 40
3.75
  9
$DIMRND
 40
0.0
  9
$DIMDLE
 40
0.0
  9
$DIMEXE
 40
1.25
  9
$DIMTP
 40
0.0
  9
$DIMTM
 40
0.0
  9
$DIMTXT
 40
2.5
  9
$DIMCEN
 40
2.5
  9
$DIMTSZ
 40
0.0
  9
$DIMTOL
 70
     0
  9
$DIMLIM
 70
     0
  9
$DIMTIH
 70
     0
  9
$DIMTOH
 70
     0
  9
$DIMSE1
 70
     0
  9
$DIMSE2
 70
     0
  9
$DIMTAD
 70
     1
  9
$DIMZIN
 70
     0
  9
$DIMBLK
  1

  9
$DIMASO
 70
     1
  9
$DIMSHO
 70
     1
  9
$DIMPOST
  1

  9
$DIMAPOST
  1

  9
$DIMALT
 70
     0
  9
$DIMALTD
 70
     3
  9
$DIMALTF
 40
0.03937007874016
  9
$DIMLFAC
 40
1.0
  9
$DIMTOFL
 70
     1
  9
$DIMTVP
 40
0.0
  9
$DIMTIX
 70
     0
  9
$DIMSOXD
 70
     0
  9
$DIMSAH
 70
     0
  9
$DIMBLK1
  1

  9
$DIMBLK2
  1

  9
$DIMSTYLE
  2
Standard
  9
$DIMCLRD
 70
     0
  9
$DIMCLRE
 70
     0
  9
$DIMCLRT
 70
     0
  9
$DIMTFAC
 40
0.75
  9
$DIMGAP
 40
0.625
  9
$DIMJUST
 70
     0
  9
$DIMSD1
 70
     0
  9
$DIMSD2
 70
     0
  9
$DIMTOLJ
 70
     0
  9
$DIMTZIN
 70
     8
  9
$DIMALTZ
 70
     0
  9
$DIMALTTZ
 70
     0
  9
$DIMUPT
 70
     0
  9
$DIMDEC
 70
     2
  9
$DIMTDEC
 70
     2
  9
$DIMALTU
 70
     2
  9
$DIMALTTD
 70
     3
  9
$DIMTXSTY
  7
Standard
  9
$DIMAUNIT
 70
     0
  9
$DIMADEC
 70
     0
  9
$DIMALTRND
 40
0.0
  9
$DIMAZIN
 70
     0
  9
$DIMDSEP
 70
    46
  9
$DIMATFIT
 70
     3
  9
$DIMFRAC
 70
     0
  9
$DIMLDRBLK
  1

  9
$DIMLUNIT
 70
     2
  9
$DIMLWD
 70
    -2
  9
$DIMLWE
 70
    -2
  9
$DIMTMOVE
 70
     0
  9
$LUNITS
 70
     2
  9
$LUPREC
 70
     4
  9
$SKETCHINC
 40
1.0
  9
$FILLETRAD
 40
10.0
  9
$AUNITS
 70
     0
  9
$AUPREC
 70
     0
  9
$MENU
  1
.
  9
$ELEVATION
 40
0.0
  9
$PELEVATION
 40
0.0
  9
$THICKNESS
 40
0.0
  9
$LIMCHECK
 70
     0
  9
$CHAMFERA
 40
10.0
  9
$CHAMFERB
 40
10.0
  9
$CHAMFERC
 40
20.0
  9
$CHAMFERD
 40
0.0
  9
$SKPOLY
 70
     0
  9
$TDCREATE
 40
2455188.75
  9
$TDUCREATE
 40
2455188.375
  9
$TDUPDATE
 40
2455188.75
  9
$TDUUPDATE
 40
2455188.375
  9
$TDINDWG
 40
0.0000000116
  9
$TDUSRTIMER
 40
0.0000000116
  9
$USRTIMER
 70
     1
  9
$ANGBASE
 50
0.0
  9
$ANGDIR
 70
     0
  9
$PDMODE
 70
     0
  9
$PDSIZE
 40
0.0
  9
$PLINEWID
 40
0.0
  9
$SPLFRAME
 70
     0
  9
$SPLINETYPE
 70
     6
  9
$SPLINESEGS
 70
     8
  9
$HANDSEED
  5
3B6
  9
$SURFTAB1
 70
     6
  9
$SURFTAB2
 70
     6
  9
$SURFTYPE
 70
     6
  9
$SURFU
 70
     6
  9
$SURFV
 70
     6
  9
$UCSBASE
  2

  9
$UCSNAME
  2

  9
$UCSORG
 10
0.0
 20
0.0
 30
0.0
  9
$UCSXDIR
 10
1.0
 20
0.0
 30
0.0
  9
$UCSYDIR
 10
0.0
 20
1.0
 30
0.0
  9
$UCSORTHOREF
  2

  9
$UCSORTHOVIEW
 70
     0
  9
$UCSORGTOP
 10
0.0
 20
0.0
 30
0.0
  9
$UCSORGBOTTOM
 10
0.0
 20
0.0
 30
0.0
  9
$UCSORGLEFT
 10
0.0
 20
0.0
 30
0.0
  9
$UCSORGRIGHT
 10
0.0
 20
0.0
 30
0.0
  9
$UCSORGFRONT
 10
0.0
 20
0.0
 30
0.0
  9
$UCSORGBACK
 10
0.0
 20
0.0
 30
0.0
  9
$PUCSBASE
  2

  9
$PUCSNAME
  2

  9
$PUCSORG
 10
0.0
 20
0.0
 30
0.0
  9
$PUCSXDIR
 10
1.0
 20
0.0
 30
0.0
  9
$PUCSYDIR
 10
0.0
 20
1.0
 30
0.0
  9
$PUCSORTHOREF
  2

  9
$PUCSORTHOVIEW
 70
     0
  9
$PUCSORGTOP
 10
0.0
 20
0.0
 30
0.0
  9
$PUCSORGBOTTOM
 10
0.0
 20
0.0
 30
0.0
  9
$PUCSORGLEFT
 10
0.0
 20
0.0
 30
0.0
  9
$PUCSORGRIGHT
 10
0.0
 20
0.0
 30
0.0
  9
$PUCSORGFRONT
 10
0.0
 20
0.0
 30
0.0
  9
$PUCSORGBACK
 10
0.0
 20
0.0
 30
0.0
  9
$USERI1
 70
     0
  9
$USERI2
 70
     0
  9
$USERI3
 70
     0
  9
$USERI4
 70
     0
  9
$USERI5
 70
     0
  9
$USERR1
 40
0.0
  9
$USERR2
 40
0.0
  9
$USERR3
 40
0.0
  9
$USERR4
 40
0.0
  9
$USERR5
 40
0.0
  9
$WORLDVIEW
 70
     1
  9
$SHADEDGE
 70
     3
  9
$SHADEDIF
 70
    70
  9
$TILEMODE
 70
     1
  9
$MAXACTVP
 70
    64
  9
$PINSBASE
 10
0.0
 20
0.0
 30
0.0
  9
$PLIMCHECK
 70
     0
  9
$PEXTMIN
 10
1.000000000000000E+20
 20
1.000000000000000E+20
 30
1.000000000000000E+20
  9
$PEXTMAX
 10
-1.000000000000000E+20
 20
-1.000000000000000E+20
 30
-1.000000000000000E+20
  9
$PLIMMIN
 10
0.0
 20
0.0
  9
$PLIMMAX
 10
420.0
 20
297.0
  9
$UNITMODE
 70
     0
  9
$VISRETAIN
 70
     1
  9
$PLINEGEN
 70
     0
  9
$PSLTSCALE
 70
     0
  9
$TREEDEPTH
 70
  3020
  9
$CMLSTYLE
  2
Standard
  9
$CMLJUST
 70
     0
  9
$CMLSCALE
 40
20.0
  9
$PROXYGRAPHICS
 70
     1
  9
$MEASUREMENT
 70
     1
  9
$CELWEIGHT
370
    -1
  9
$ENDCAPS
280
     0
  9
$JOINSTYLE
280
     0
  9
$LWDISPLAY
290
     0
  9
$INSUNITS
 70
     4
  9
$HYPERLINKBASE
  1

  9
$STYLESHEET
  1

  9
$XEDIT
290
     1
  9
$CEPSNTYPE
380
     0
  9
$PSTYLEMODE
290
     1
  9
$FINGERPRINTGUID
  2
{6B244AD0-2759-4554-8F60-040A274B4A59}
  9
$VERSIONGUID
  2
{FAEB1C32-E019-11D5-929B-00C0DF256EC4}
  9
$EXTNAMES
290
     1
  9
$PSVPSCALE
 40
0.0
  9
$OLESTARTUP
290
     0
  0
ENDSEC
  0
SECTION
  2
CLASSES
  0
CLASS
  1
ACDBDICTIONARYWDFLT
  2
AcDbDictionaryWithDefault
  3
ObjectDBX Classes
 90
        0
280
     0
281
     0
  0
CLASS
  1
VISUALSTYLE
  2
AcDbVisualStyle
  3
ObjectDBX Classes
 90
     4095
280
     0
281
     0
  0
CLASS
  1
MATERIAL
  2
AcDbMaterial
  3
ObjectDBX Classes
 90
     1153
280
     0
281
     0
  0
CLASS
  1
SCALE
  2
AcDbScale
  3
ObjectDBX Classes
 90
     1153
280
     0
281
     0
  0
CLASS
  1
SUN
  2
AcDbSun
  3
SCENEOE
 90
     1153
280
     0
281
     0
  0
CLASS
  1
DICTIONARYVAR
  2
AcDbDictionaryVar
  3
ObjectDBX Classes
 90
        0
280
     0
281
     0
  0
CLASS
  1
ACDBPLACEHOLDER
  2
AcDbPlaceHolder
  3
ObjectDBX Classes
 90
        0
280
     0
281
     0
  0
CLASS
  1
LAYOUT
  2
AcDbLayout
  3
ObjectDBX Classes
 90
        0
280
     0
281
     0
  0
ENDSEC
  0
SECTION
  2
TABLES
  0
TABLE
  2
VPORT
  5
8
330
0
100
AcDbSymbolTable
 70
     1
  0
VPORT
  5
29
330
8
100
AcDbSymbolTableRecord
100
AcDbViewportTableRecord
  2
*Active
 70
     0
 10
0.0
 20
0.0
 11
1.0
 21
1.0
 12
115.034184020284
 22
146.9461725831186
 13
0.0
 23
0.0
 14
10.0
 24
10.0
 15
10.0
 25
10.0
 16
0.0
 26
0.0
 36
1.0
 17
0.0
 27
0.0
 37
0.0
 40
279.2815796828609
 41
1.333333333333333
 42
50.0
 43
0.0
 44
0.0
 50
0.0
 51
0.0
 71
     0
 72
 20000
 73
     1
 74
     3
 75
     0
 76
     0
 77
     0
 78
     0
281
     0
 65
     1
110
0.0
120
0.0
130
0.0
111
1.0
121
0.0
131
0.0
112
0.0
122
1.0
132
0.0
 79
     0
146
0.0
  0
ENDTAB
  0
TABLE
  2
LTYPE
  5
5
330
0
100
AcDbSymbolTable
 70
     7
  0
LTYPE
  5
14
330
5
100
AcDbSymbolTableRecord
100
AcDbLinetypeTableRecord
  2
ByBlock
 70
     0
  3

 72
    65
 73
     0
 40
0.0
  0
LTYPE
  5
15
330
5
100
AcDbSymbolTableRecord
100
AcDbLinetypeTableRecord
  2
ByLayer
 70
     0
  3

 72
    65
 73
     0
 40
0.0
  0
LTYPE
  5
16
330
5
100
AcDbSymbolTableRecord
100
AcDbLinetypeTableRecord
  2
Continuous
 70
     0
  3
Solid line
 72
    65
 73
     0
 40
0.0
  0
LTYPE
  5
6B
330
5
100
AcDbSymbolTableRecord
100
AcDbLinetypeTableRecord
  2
DASHED
 70
     0
  3
ICAD/SX(2) Dashed __ __ __ __ __ __ __ __ __ __ __ __ __ _
 72
    65
 73
     2
 40
19.05
 49
12.7
 74
     0
 49
-6.35
 74
     0
  0
LTYPE
  5
6C
330
5
100
AcDbSymbolTableRecord
100
AcDbLinetypeTableRecord
  2
CENTER
 70
     0
  3
ICAD/SX(3) Center ____ _ ____ _ ____ _ ____ _ ____ _ ____
 72
    65
 73
     4
 40
50.8
 49
31.75
 74
     0
 49
-6.35
 74
     0
 49
6.35
 74
     0
 49
-6.35
 74
     0
  0
LTYPE
  5
6D
330
5
100
AcDbSymbolTableRecord
100
AcDbLinetypeTableRecord
  2
PHANTOM
 70
     0
  3
ICAD/SX(4) Phantom ______  __  __  ______  __  __  ______
 72
    65
 73
     6
 40
63.5
 49
31.75
 74
     0
 49
-6.35
 74
     0
 49
6.35
 74
     0
 49
-6.35
 74
     0
 49
6.35
 74
     0
 49
-6.35
 74
     0
  0
LTYPE
  5
6E
330
5
100
AcDbSymbolTableRecord
100
AcDbLinetypeTableRecord
  2
DOT
 70
     0
  3
ICAD/SX(5) Dot . . . . . . . . . . . . . . . . . . . . . . . .
 72
    65
 73
     2
 40
6.35
 49
0.0
 74
     0
 49
-6.35
 74
     0
  0
LTYPE
  5
6F
330
5
100
AcDbSymbolTableRecord
100
AcDbLinetypeTableRecord
  2
HIDDEN
 70
     0
  3
ICAD/SX(6) Hidden __ __ __ __ __ __ __ __ __ __ __ __ __ __
 72
    65
 73
     2
 40
9.525
 49
6.35
 74
     0
 49
-3.175
 74
     0
  0
LTYPE
  5
70
330
5
100
AcDbSymbolTableRecord
100
AcDbLinetypeTableRecord
  2
DOTSX
 70
     0
  3
ICAD/SX(5) Dot . . . . . . . . . . . . . . . . . . . . . . . .
 72
    65
 73
     2
 40
6.35
 49
3.175
 74
     0
 49
-3.175
 74
     0
  0
ENDTAB
  0
TABLE
  2
LAYER
  5
2
330
0
100
AcDbSymbolTable
 70
     7
  0
LAYER
  5
10
330
2
100
AcDbSymbolTableRecord
100
AcDbLayerTableRecord
  2
0
 70
     0
 62
     7
  6
Continuous
370
    -3
390
F
  0
LAYER
  5
71
330
2
100
AcDbSymbolTableRecord
100
AcDbLayerTableRecord
  2
NoLayerName_001
 70
     0
 62
     7
  6
Continuous
370
    -3
390
F
  0
LAYER
  5
72
330
2
100
AcDbSymbolTableRecord
100
AcDbLayerTableRecord
  2
NoLayerName_002
 70
     0
 62
     7
  6
Continuous
370
    -3
390
F
  0
LAYER
  5
73
330
2
100
AcDbSymbolTableRecord
100
AcDbLayerTableRecord
  2
NoLayerName_003
 70
     0
 62
     7
  6
Continuous
370
    -3
390
F
  0
LAYER
  5
74
330
2
100
AcDbSymbolTableRecord
100
AcDbLayerTableRecord
  2
NoLayerName_004
 70
     0
 62
     7
  6
Continuous
370
    -3
390
F
  0
LAYER
  5
75
330
2
100
AcDbSymbolTableRecord
100
AcDbLayerTableRecord
  2
NoLayerName_005
 70
     0
 62
     7
  6
Continuous
370
    -3
390
F
  0
LAYER
  5
76
330
2
100
AcDbSymbolTableRecord
100
AcDbLayerTableRecord
  2
Defpoints
 70
     0
 62
     7
  6
Continuous
290
     0
370
    -3
390
F
  0
ENDTAB
  0
TABLE
  2
STYLE
  5
3
330
0
100
AcDbSymbolTable
 70
     2
  0
STYLE
  5
11
330
3
100
AcDbSymbolTableRecord
100
AcDbTextStyleTableRecord
  2
Standard
 70
     0
 40
0.0
 41
1.0
 50
0.0
 71
     0
 42
2.5
  3
txt
  4
extfont2
  0
STYLE
  5
6A
330
3
100
AcDbSymbolTableRecord
100
AcDbTextStyleTableRecord
  2

 70
     1
 40
0.0
 41
1.0
 50
0.0
 71
     0
 42
2.5
  3
ltypeshp.shx
  4

  0
ENDTAB
  0
TABLE
  2
VIEW
  5
6
330
0
100
AcDbSymbolTable
 70
     0
  0
ENDTAB
  0
TABLE
  2
UCS
  5
7
330
0
100
AcDbSymbolTable
 70
     0
  0
ENDTAB
  0
TABLE
  2
APPID
  5
9
330
0
100
AcDbSymbolTable
 70
     1
  0
APPID
  5
12
330
9
100
AcDbSymbolTableRecord
100
AcDbRegAppTableRecord
  2
ACAD
 70
     0
  0
ENDTAB
  0
TABLE
  2
DIMSTYLE
  5
A
330
0
100
AcDbSymbolTable
 70
     1
100
AcDbDimStyleTable
  0
DIMSTYLE
105
27
330
A
100
AcDbSymbolTableRecord
100
AcDbDimStyleTableRecord
  2
Standard
 70
     0
 41
2.5
 42
0.625
 43
3.75
 44
1.25
 73
     0
 74
     0
 77
     1
140
2.5
141
2.5
143
0.03937007874016
146
0.75
147
0.625
171
     3
172
     1
178
     0
271
     2
272
     2
274
     3
283
     0
284
     8
340
11
  0
ENDTAB
  0
TABLE
  2
BLOCK_RECORD
  5
1
330
0
100
AcDbSymbolTable
 70
     4
  0
BLOCK_RECORD
  5
1F
330
1
100
AcDbSymbolTableRecord
100
AcDbBlockTableRecord
  2
*Model_Space
340
22
  0
BLOCK_RECORD
  5
1B
330
1
100
AcDbSymbolTableRecord
100
AcDbBlockTableRecord
  2
*Paper_Space
340
1E
  0
BLOCK_RECORD
  5
23
330
1
100
AcDbSymbolTableRecord
100
AcDbBlockTableRecord
  2
*Paper_Space0
340
0
  0
BLOCK_RECORD
  5
219
330
1
100
AcDbSymbolTableRecord
100
AcDbBlockTableRecord
  2
*X1
340
0
102
{BLKREFS
331
221
102
}
  0
BLOCK_RECORD
  5
295
330
1
100
AcDbSymbolTableRecord
100
AcDbBlockTableRecord
  2
*X2
340
0
102
{BLKREFS
331
29D
102
}
  0
BLOCK_RECORD
  5
311
330
1
100
AcDbSymbolTableRecord
100
AcDbBlockTableRecord
  2
*X3
340
0
102
{BLKREFS
331
319
102
}
  0
ENDTAB
  0
ENDSEC
  0
SECTION
  2
BLOCKS
  0
BLOCK
  5
20
330
1F
100
AcDbEntity
  8
0
100
AcDbBlockBegin
  2
*Model_Space
 70
     0
 10
0.0
 20
0.0
 30
0.0
  3
*Model_Space
  1
*Model_Space
  0
ENDBLK
  5
21
330
1F
100
AcDbEntity
  8
0
100
AcDbBlockEnd
  0
BLOCK
  5
1C
330
1B
100
AcDbEntity
 67
     1
  8
0
100
AcDbBlockBegin
  2
*Paper_Space
 70
     0
 10
0.0
 20
0.0
 30
0.0
  3
*Paper_Space
  1
*Paper_Space
  0
ENDBLK
  5
1D
330
1B
100
AcDbEntity
 67
     1
  8
0
100
AcDbBlockEnd
  0
BLOCK
  5
24
330
23
100
AcDbEntity
  8
0
100
AcDbBlockBegin
  2
*Paper_Space0
 70
     0
 10
0.0
 20
0.0
 30
0.0
  3
*Paper_Space0
  1
*Paper_Space0
  0
ENDBLK
  5
25
330
23
100
AcDbEntity
  8
0
100
AcDbBlockEnd
  0
BLOCK
  5
21A
330
219
100
AcDbEntity
  8
0
100
AcDbBlockBegin
  2
*X1
 70
     1
 10
0.0
 20
0.0
 30
0.0
  3
*X1
  1
*X1
  0
LINE
  5
21C
330
219
100
AcDbEntity
  8
0
  6
Continuous
 62
     7
370
    25
100
AcDbLine
 10
1.954631735928515
 20
0.1809169310734262
 30
0.0
 11
2.370583936729001
 21
1.185114375544895
 31
0.0
  0
LINE
  5
21D
330
219
100
AcDbEntity
  8
0
  6
Continuous
 62
     7
370
    25
100
AcDbLine
 10
1.370184308690157
 20
0.0764989906168524
 30
0.0
 11
1.974473909641688
 21
1.535383140835065
 31
0.0
  0
LINE
  5
21E
330
219
100
AcDbEntity
  8
0
  6
Continuous
 62
     7
370
    25
100
AcDbLine
 10
0.7973022320506626
 20
0.00000227642971
 30
0.0
 11
1.384232261567122
 21
1.416976713852386
 31
0.0
  0
LINE
  5
21F
330
219
100
AcDbEntity
  8
0
  6
Continuous
 62
     7
370
    25
100
AcDbLine
 10
0.3071264721759328
 20
0.1231762738699606
 30
0.0
 11
0.807284609799875
 21
1.330664833052951
 31
0.0
  0
LINE
  5
220
330
219
100
AcDbEntity
  8
0
  6
Continuous
 62
     7
370
    25
100
AcDbLine
 10
-0.000001814114458
 20
0.6882659645957317
 30
0.0
 11
0.24250892047778
 21
1.273738669069375
 31
0.0
  0
ENDBLK
  5
21B
330
219
100
AcDbEntity
  8
0
100
AcDbBlockEnd
  0
BLOCK
  5
296
330
295
100
AcDbEntity
  8
0
100
AcDbBlockBegin
  2
*X2
 70
     1
 10
0.0
 20
0.0
 30
0.0
  3
*X2
  1
*X2
  0
LINE
  5
298
330
295
100
AcDbEntity
  8
0
  6
Continuous
 62
     7
370
    25
100
AcDbLine
 10
1.954629914714474
 20
0.1809103431778567
 30
0.0
 11
2.370582115514959
 21
1.185107787649326
 31
0.0
  0
LINE
  5
299
330
295
100
AcDbEntity
  8
0
  6
Continuous
 62
     7
370
    25
100
AcDbLine
 10
1.370182487476115
 20
0.0764924027212829
 30
0.0
 11
1.974472088427646
 21
1.535376552939495
 31
0.0
  0
LINE
  5
29A
330
295
100
AcDbEntity
  8
0
  6
Continuous
 62
     7
370
    25
100
AcDbLine
 10
0.7973004108366208
 20
-0.0000043114658596
 30
0.0
 11
1.38423044035308
 21
1.416970125956817
 31
0.0
  0
LINE
  5
29B
330
295
100
AcDbEntity
  8
0
  6
Continuous
 62
     7
370
    25
100
AcDbLine
 10
0.307124650961891
 20
0.123169685974391
 30
0.0
 11
0.8072827885858332
 21
1.330658245157381
 31
0.0
  0
LINE
  5
29C
330
295
100
AcDbEntity
  8
0
  6
Continuous
 62
     7
370
    25
100
AcDbLine
 10
-0.0000036353284998
 20
0.6882593767001622
 30
0.0
 11
0.2425070992637382
 21
1.273732081173805
 31
0.0
  0
ENDBLK
  5
297
330
295
100
AcDbEntity
  8
0
100
AcDbBlockEnd
  0
BLOCK
  5
312
330
311
100
AcDbEntity
  8
0
100
AcDbBlockBegin
  2
*X3
 70
     1
 10
0.0
 20
0.0
 30
0.0
  3
*X3
  1
*X3
  0
LINE
  5
314
330
311
100
AcDbEntity
  8
0
  6
Continuous
 62
     7
370
    25
100
AcDbLine
 10
1.611691309693697
 20
0.0000012660364206
 30
0.0
 11
2.380270759338884
 21
0.7685807156816075
 31
0.0
  0
LINE
  5
315
330
311
100
AcDbEntity
  8
0
  6
Continuous
 62
     7
370
    25
100
AcDbLine
 10
1.031773277984882
 20
0.127190015514131
 30
0.0
 11
2.148354866041948
 21
1.243771603571196
 31
0.0
  0
LINE
  5
316
330
311
100
AcDbEntity
  8
0
  6
Continuous
 62
     7
370
    25
100
AcDbLine
 10
0.4732252276853046
 20
0.2757487464011064
 30
0.0
 11
1.557730510258308
 21
1.36025402897411
 31
0.0
  0
LINE
  5
317
330
311
100
AcDbEntity
  8
0
  6
Continuous
 62
     7
370
    25
100
AcDbLine
 10
0.0674985239224384
 20
0.5771288238247791
 30
0.0
 11
0.9916702566618855
 21
1.501300556564226
 31
0.0
  0
LINE
  5
318
330
311
100
AcDbEntity
  8
0
  6
Continuous
 62
     7
370
    25
100
AcDbLine
 10
-0.0000005511954555
 20
1.216736529893467
 30
0.0
 11
0.4481008570126355
 21
1.664837938101558
 31
0.0
  0
ENDBLK
  5
313
330
311
100
AcDbEntity
  8
0
100
AcDbBlockEnd
  0
ENDSEC
  0
SECTION
  2
ENTITIES
  0
LINE
  5
77
330
1F
100
AcDbEntity
  8
NoLayerName_001
  6
Continuous
 62
    30
370
    50
100
AcDbLine
 10
95.5041484095762
 20
131.0919741512271
 30
0.0
 11
95.5041484095762
 21
135.0919741512273
 31
0.0
  0
LINE
  5
78
330
1F
100
AcDbEntity
  8
NoLayerName_001
  6
Continuous
 62
    30
370
    50
100
AcDbLine
 10
44.06836804056803
 20
209.2083875195676
 30
0.0
 11
44.06836804056803
 21
198.921343495442
 31
0.0
  0
ARC
  5
79
330
1F
100
AcDbEntity
  8
NoLayerName_001
  6
Continuous
 62
    30
370
    50
100
AcDbCircle
 10
45.06836804056826
 20
198.9213434954422
 30
0.0
 40
1.0
100
AcDbArc
 50
180.0
 51
270.0
  0
ARC
  5
7A
330
1F
100
AcDbEntity
  8
NoLayerName_001
  6
Continuous
 62
    30
370
    50
100
AcDbCircle
 10
45.06836804056826
 20
209.2083875195676
 30
0.0
 40
1.0
100
AcDbArc
 50
109.0256060375687
 51
180.0
  0
ARC
  5
7B
330
1F
100
AcDbEntity
  8
NoLayerName_001
  6
Continuous
 62
    30
370
    50
100
AcDbCircle
 10
50.06836804056826
 20
204.921343495442
 30
0.0
 40
2.0
100
AcDbArc
 50
90.0
 51
270.0
  0
ARC
  5
7C
330
1F
100
AcDbEntity
  8
NoLayerName_001
  6
Continuous
 62
    30
370
    50
100
AcDbCircle
 10
174.0683680405678
 20
220.6342994713162
 30
0.0
 40
1.0
100
AcDbArc
 50
289.0256060375687
 51
0.0
  0
LINE
  5
7D
330
1F
100
AcDbEntity
  8
NoLayerName_001
  6
Continuous
 62
    30
370
    50
100
AcDbLine
 10
175.0683680405678
 20
220.6342994713162
 30
0.0
 11
175.0683680405678
 21
230.9213434954419
 31
0.0
  0
ARC
  5
7E
330
1F
100
AcDbEntity
  8
NoLayerName_001
  6
Continuous
 62
    30
370
    50
100
AcDbCircle
 10
174.0683680405678
 20
230.9213434954427
 30
0.0
 40
1.0
100
AcDbArc
 50
0.0000000000000254
 51
90.0
  0
ARC
  5
7F
330
1F
100
AcDbEntity
  8
NoLayerName_001
  6
Continuous
 62
    30
370
    50
100
AcDbCircle
 10
169.0683680405678
 20
224.9213434954419
 30
0.0
 40
2.0
100
AcDbArc
 50
270.0
 51
90.0
  0
LINE
  5
80
330
1F
100
AcDbEntity
  8
NoLayerName_001
  6
Continuous
 62
    30
370
    50
100
AcDbLine
 10
92.71106493582289
 20
135.0919741512273
 30
0.0
 11
95.5041484095762
 21
135.0919741512273
 31
0.0
  0
ARC
  5
81
330
1F
100
AcDbEntity
  8
NoLayerName_001
  6
Continuous
 62
    30
370
    50
100
AcDbCircle
 10
132.3371802007491
 20
159.9525683792065
 30
0.0
 40
4.002226554560958
100
AcDbArc
 50
204.4112768646391
 51
24.41127686463645
  0
ARC
  5
82
330
1F
100
AcDbEntity
  8
NoLayerName_001
  6
Continuous
 62
    30
370
    50
100
AcDbCircle
 10
86.79955588038723
 20
269.8901186116762
 30
0.0
 40
4.002226554560958
100
AcDbArc
 50
24.411276864639
 51
204.4112768646364
  0
LINE
  5
83
330
1F
100
AcDbEntity
  8
NoLayerName_001
  6
Continuous
 62
    30
370
    50
100
AcDbLine
 10
83.45082727322603
 20
91.09197415122753
 30
0.0
 11
83.45082727322603
 21
87.09197415122708
 31
0.0
  0
LINE
  5
84
330
1F
100
AcDbEntity
  8
NoLayerName_001
  6
Continuous
 62
    30
370
    50
100
AcDbLine
 10
175.0683680405685
 20
86.0919741512273
 30
0.0
 11
175.0683680405685
 21
83.0919741512273
 31
0.0
  0
LINE
  5
85
330
1F
100
AcDbEntity
  8
NoLayerName_001
  6
Continuous
 62
    30
370
    50
100
AcDbLine
 10
95.50414840957632
 20
87.09197415122708
 30
0.0
 11
83.45082727322603
 21
87.09197415122708
 31
0.0
  0
LINE
  5
86
330
1F
100
AcDbEntity
  8
NoLayerName_001
  6
Continuous
 62
    30
370
    50
100
AcDbLine
 10
88.44347635954051
 20
87.09197415122708
 30
0.0
 11
88.44347635954051
 21
83.0919741512273
 31
0.0
  0
LINE
  5
87
330
1F
100
AcDbEntity
  8
NoLayerName_001
  6
Continuous
 62
    30
370
    50
100
AcDbLine
 10
44.06836804056803
 20
86.0919741512273
 30
0.0
 11
44.06836804056803
 21
83.0919741512273
 31
0.0
  0
LINE
  5
88
330
1F
100
AcDbEntity
  8
NoLayerName_001
  6
DOTSX
 62
     7
370
    25
100
AcDbLine
 10
90.10033060903248
 20
167.9213434954422
 30
0.0
 11
129.0364054721034
 21
167.9213434954422
 31
0.0
  0
LINE
  5
89
330
1F
100
AcDbEntity
  8
NoLayerName_001
  6
DOTSX
 62
     7
370
    25
100
AcDbLine
 10
90.10033060903271
 20
167.9213434954422
 30
0.0
 11
62.56836804056805
 21
195.4533060639068
 31
0.0
  0
LINE
  5
8A
330
1F
100
AcDbEntity
  8
NoLayerName_001
  6
Continuous
 62
    30
370
    50
100
AcDbLine
 10
83.56512418168819
 20
135.0919741512273
 30
0.0
 11
83.45082727322591
 21
135.0919741512273
 31
0.0
  0
LINE
  5
8B
330
1F
100
AcDbEntity
  8
NoLayerName_001
  6
Continuous
 62
     8
370
    50
100
AcDbLine
 10
53.56836804056803
 20
139.0919741512271
 30
0.0
 11
53.56836804056803
 21
83.0919741512273
 31
0.0
  0
LINE
  5
8C
330
1F
100
AcDbEntity
  8
NoLayerName_001
  6
Continuous
 62
     8
370
    50
100
AcDbLine
 10
165.568368040568
 20
139.0919741512271
 30
0.0
 11
165.568368040568
 21
83.0919741512273
 31
0.0
  0
LINE
  5
8D
330
1F
100
AcDbEntity
  8
NoLayerName_001
  6
Continuous
 62
    30
370
    50
100
AcDbLine
 10
53.56836804056803
 20
89.36783622019283
 30
0.0
 11
44.06836804056802
 21
86.09197415122729
 31
0.0
  0
LINE
  5
8E
330
1F
100
AcDbEntity
  8
NoLayerName_001
  6
Continuous
 62
    30
370
    50
100
AcDbLine
 10
165.5683680405681
 20
89.367836220193
 30
0.0
 11
175.0683680405685
 21
86.0919741512273
 31
0.0
  0
LINE
  5
8F
330
1F
100
AcDbEntity
  8
NoLayerName_001
  6
Continuous
 62
    30
370
    50
100
AcDbLine
 10
53.5683680405678
 20
206.921343495442
 30
0.0
 11
50.06836804056802
 21
206.921343495442
 31
0.0
  0
LINE
  5
90
330
1F
100
AcDbEntity
  8
NoLayerName_001
  6
Continuous
 62
    30
370
    50
100
AcDbLine
 10
53.56836804056786
 20
202.9213434954418
 30
0.0
 11
50.06836804056829
 21
202.9213434954418
 31
0.0
  0
LINE
  5
91
330
1F
100
AcDbEntity
  8
NoLayerName_001
  6
Continuous
 62
    30
370
    50
100
AcDbLine
 10
53.56836804056786
 20
197.9213434954422
 30
0.0
 11
45.06836804056829
 21
197.9213434954422
 31
0.0
  0
LINE
  5
92
330
1F
100
AcDbEntity
  8
NoLayerName_001
  6
Continuous
 62
    30
370
    50
100
AcDbLine
 10
53.5683680405678
 20
213.1972055644072
 30
0.0
 11
44.74237735724867
 21
210.1537605011937
 31
0.0
  0
ARC
  5
93
330
1F
100
AcDbEntity
  8
NoLayerName_001
  6
DOTSX
 62
     7
370
    25
100
AcDbCircle
 10
54.06836804056803
 20
204.9213434954422
 30
0.0
 40
2.0
100
AcDbArc
 50
270.0
 51
90.0
  0
LINE
  5
94
330
1F
100
AcDbEntity
  8
NoLayerName_001
  6
DOTSX
 62
     7
370
    25
100
AcDbLine
 10
53.56836804056786
 20
202.9213434954418
 30
0.0
 11
54.06836804056828
 21
202.9213434954418
 31
0.0
  0
LINE
  5
95
330
1F
100
AcDbEntity
  8
NoLayerName_001
  6
DOTSX
 62
     7
370
    25
100
AcDbLine
 10
53.5683680405678
 20
206.921343495442
 30
0.0
 11
54.06836804056801
 21
206.921343495442
 31
0.0
  0
LINE
  5
96
330
1F
100
AcDbEntity
  8
NoLayerName_001
  6
DOTSX
 62
     7
370
    25
100
AcDbLine
 10
53.56836804056786
 20
197.9213434954422
 30
0.0
 11
58.56836804056783
 21
197.9213434954422
 31
0.0
  0
LINE
  5
97
330
1F
100
AcDbEntity
  8
NoLayerName_001
  6
DOTSX
 62
     7
370
    25
100
AcDbLine
 10
53.5683680405678
 20
213.1972055644072
 30
0.0
 11
58.56836804056782
 21
214.9213434954416
 31
0.0
  0
LINE
  5
98
330
1F
100
AcDbEntity
  8
NoLayerName_001
  6
Continuous
 62
     8
370
    50
100
AcDbLine
 10
56.49730022870233
 20
188.7964518144146
 30
0.0
 11
79.29700267356282
 21
165.9967493695542
 31
0.0
  0
LINE
  5
99
330
1F
100
AcDbEntity
  8
NoLayerName_001
  6
Continuous
 62
     8
370
    50
100
AcDbLine
 10
128.622191909731
 20
158.9213434954421
 30
0.0
 11
96.37854349413843
 21
158.9213434954421
 31
0.0
  0
LINE
  5
9A
330
1F
100
AcDbEntity
  8
NoLayerName_001
  6
DOTSX
 62
     7
370
    25
100
AcDbLine
 10
83.4434763595404
 20
161.8502756835767
 30
0.0
 11
79.29700267356287
 21
165.9967493695542
 31
0.0
  0
LINE
  5
9B
330
1F
100
AcDbEntity
  8
NoLayerName_001
  6
DOTSX
 62
     7
370
    25
100
AcDbLine
 10
90.51454417140587
 20
158.9213434954421
 30
0.0
 11
96.3785434941384
 21
158.9213434954421
 31
0.0
  0
LINE
  5
9C
330
1F
100
AcDbEntity
  8
NoLayerName_001
  6
Continuous
 62
     8
370
    50
100
AcDbLine
 10
83.44347635954017
 20
267.9924113073077
 30
0.0
 11
60.64377391468014
 21
245.1927088624476
 31
0.0
  0
LINE
  5
9D
330
1F
100
AcDbEntity
  8
NoLayerName_001
  6
Continuous
 62
     8
370
    50
100
AcDbLine
 10
53.56836804056786
 20
195.8675196262801
 30
0.0
 11
53.56836804056783
 21
228.1111680418723
 31
0.0
  0
LINE
  5
9E
330
1F
100
AcDbEntity
  8
NoLayerName_001
  6
DOTSX
 62
     7
370
    25
100
AcDbLine
 10
53.5683680405678
 20
228.1111680418724
 30
0.0
 11
53.5683680405678
 21
233.9751673646044
 31
0.0
  0
LINE
  5
9F
330
1F
100
AcDbEntity
  8
NoLayerName_001
  6
DOTSX
 62
     7
370
    25
100
AcDbLine
 10
56.49730022870233
 20
241.0462351764698
 30
0.0
 11
60.6437739146801
 21
245.1927088624476
 31
0.0
  0
LINE
  5
A0
330
1F
100
AcDbEntity
  8
NoLayerName_001
  6
Continuous
 62
    30
370
    50
100
AcDbLine
 10
165.5683680405677
 20
231.9213434954424
 30
0.0
 11
174.0683680405682
 21
231.9213434954424
 31
0.0
  0
LINE
  5
A1
330
1F
100
AcDbEntity
  8
NoLayerName_001
  6
Continuous
 62
    30
370
    50
100
AcDbLine
 10
165.5683680405677
 20
226.9213434954421
 30
0.0
 11
169.0683680405678
 21
226.9213434954421
 31
0.0
  0
LINE
  5
A2
330
1F
100
AcDbEntity
  8
NoLayerName_001
  6
Continuous
 62
    30
370
    50
100
AcDbLine
 10
165.5683680405677
 20
222.9213434954422
 30
0.0
 11
169.0683680405678
 21
222.9213434954422
 31
0.0
  0
LINE
  5
A3
330
1F
100
AcDbEntity
  8
NoLayerName_001
  6
Continuous
 62
    30
370
    50
100
AcDbLine
 10
165.5683680405677
 20
216.6454814264764
 30
0.0
 11
174.3943587238873
 21
219.6889264896901
 31
0.0
  0
LINE
  5
A4
330
1F
100
AcDbEntity
  8
NoLayerName_001
  6
Continuous
 62
     8
370
    50
100
AcDbLine
 10
165.5683680405677
 20
233.9751673646043
 30
0.0
 11
165.5683680405678
 21
201.7315189490132
 31
0.0
  0
LINE
  5
A5
330
1F
100
AcDbEntity
  8
NoLayerName_001
  6
DOTSX
 62
     7
370
    25
100
AcDbLine
 10
158.4929621664567
 20
184.6499781284369
 30
0.0
 11
162.6394358524333
 21
188.7964518144135
 31
0.0
  0
LINE
  5
A6
330
1F
100
AcDbEntity
  8
NoLayerName_001
  6
DOTSX
 62
     7
370
    25
100
AcDbLine
 10
165.5683680405678
 20
195.867519626279
 30
0.0
 11
165.5683680405678
 21
201.7315189490132
 31
0.0
  0
ARC
  5
A7
330
1F
100
AcDbEntity
  8
NoLayerName_001
  6
DOTSX
 62
     7
370
    25
100
AcDbCircle
 10
165.0683680405678
 20
224.9213434954422
 30
0.0
 40
2.0
100
AcDbArc
 50
90.0
 51
270.0
  0
LINE
  5
A8
330
1F
100
AcDbEntity
  8
NoLayerName_001
  6
DOTSX
 62
     7
370
    25
100
AcDbLine
 10
165.5683680405677
 20
222.9213434954422
 30
0.0
 11
165.0683680405678
 21
222.9213434954422
 31
0.0
  0
LINE
  5
A9
330
1F
100
AcDbEntity
  8
NoLayerName_001
  6
DOTSX
 62
     7
370
    25
100
AcDbLine
 10
165.5683680405677
 20
226.9213434954421
 30
0.0
 11
165.0683680405678
 21
226.9213434954421
 31
0.0
  0
LINE
  5
AA
330
1F
100
AcDbEntity
  8
NoLayerName_001
  6
DOTSX
 62
     7
370
    25
100
AcDbLine
 10
165.5683680405677
 20
216.6454814264764
 30
0.0
 11
160.5683680405678
 21
214.9213434954419
 31
0.0
  0
LINE
  5
AB
330
1F
100
AcDbEntity
  8
NoLayerName_001
  6
Continuous
 62
     8
370
    50
100
AcDbLine
 10
90.51454417140565
 20
270.9213434954422
 30
0.0
 11
122.7581925869982
 21
270.9213434954423
 31
0.0
  0
LINE
  5
AC
330
1F
100
AcDbEntity
  8
NoLayerName_001
  6
Continuous
 62
     8
370
    50
100
AcDbLine
 10
162.6394358524333
 20
241.0462351764698
 30
0.0
 11
139.8397334075738
 21
263.8459376213293
 31
0.0
  0
LINE
  5
AD
330
1F
100
AcDbEntity
  8
NoLayerName_001
  6
DOTSX
 62
     7
370
    25
100
AcDbLine
 10
139.8397334075737
 20
263.8459376213293
 30
0.0
 11
135.6932597215952
 21
267.9924113073077
 31
0.0
  0
LINE
  5
AE
330
1F
100
AcDbEntity
  8
NoLayerName_001
  6
DOTSX
 62
     7
370
    25
100
AcDbLine
 10
128.6221919097297
 20
270.9213434954423
 30
0.0
 11
122.7581925869981
 21
270.9213434954423
 31
0.0
  0
LINE
  5
AF
330
1F
100
AcDbEntity
  8
NoLayerName_001
  6
Continuous
 62
    30
370
    50
100
AcDbLine
 10
90.70197734884442
 20
270.9213434954423
 30
0.0
 11
90.44399273260547
 21
271.54417345485
 31
0.0
  0
LINE
  5
B0
330
1F
100
AcDbEntity
  8
NoLayerName_001
  6
Continuous
 62
    30
370
    50
100
AcDbLine
 10
83.31094108875419
 20
267.8598760365217
 30
0.0
 11
83.15511902817295
 21
268.2360637684939
 31
0.0
  0
LINE
  5
B1
330
1F
100
AcDbEntity
  8
NoLayerName_001
  6
DOTSX
 62
     7
370
    25
100
AcDbLine
 10
86.64019114706514
 20
267.6617331824764
 30
0.0
 11
86.17825138080953
 21
267.4703914662939
 31
0.0
  0
ARC
  5
B2
330
1F
100
AcDbEntity
  8
NoLayerName_001
  6
DOTSX
 62
     7
370
    25
100
AcDbCircle
 10
86.83153286324762
 20
267.1997934162208
 30
0.0
 40
0.5
100
AcDbArc
 50
22.49999999999909
 51
112.5
  0
LINE
  5
B3
330
1F
100
AcDbEntity
  8
NoLayerName_001
  6
DOTSX
 62
     7
370
    25
100
AcDbLine
 10
87.2934726295033
 20
267.3911351324032
 30
0.0
 11
87.4848143456858
 21
266.9291953661477
 31
0.0
  0
LINE
  5
B4
330
1F
100
AcDbEntity
  8
NoLayerName_001
  6
DOTSX
 62
     7
370
    25
100
AcDbLine
 10
87.48481434568589
 20
266.9291953661477
 30
0.0
 11
88.40869387819718
 21
267.3118787985127
 31
0.0
  0
LINE
  5
B5
330
1F
100
AcDbEntity
  8
NoLayerName_001
  6
DOTSX
 62
     7
370
    25
100
AcDbLine
 10
88.21735216201455
 20
267.7738185647684
 30
0.0
 11
88.4086938781971
 21
267.3118787985127
 31
0.0
  0
ARC
  5
B6
330
1F
100
AcDbEntity
  8
NoLayerName_001
  6
DOTSX
 62
     7
370
    25
100
AcDbCircle
 10
88.67929192827023
 20
267.965160280951
 30
0.0
 40
0.5
100
AcDbArc
 50
112.5
 51
202.4999999999991
  0
LINE
  5
B7
330
1F
100
AcDbEntity
  8
NoLayerName_001
  6
DOTSX
 62
     7
370
    25
100
AcDbLine
 10
88.48795021208764
 20
268.4271000472066
 30
0.0
 11
88.94988997834332
 21
268.6184417633891
 31
0.0
  0
LINE
  5
B8
330
1F
100
AcDbEntity
  8
NoLayerName_001
  6
DOTSX
 62
     7
370
    25
100
AcDbLine
 10
88.56720654597825
 20
269.5423212959005
 30
0.0
 11
88.94988997834334
 21
268.6184417633892
 31
0.0
  0
LINE
  5
B9
330
1F
100
AcDbEntity
  8
NoLayerName_001
  6
DOTSX
 62
     7
370
    25
100
AcDbLine
 10
88.10526677972257
 20
269.3509795797179
 30
0.0
 11
88.56720654597822
 21
269.5423212959005
 31
0.0
  0
ARC
  5
BA
330
1F
100
AcDbEntity
  8
NoLayerName_001
  6
DOTSX
 62
     7
370
    25
100
AcDbCircle
 10
87.91392506354009
 20
269.8129193459736
 30
0.0
 40
0.5
100
AcDbArc
 50
202.4999999999991
 51
292.4999999999999
  0
LINE
  5
BB
330
1F
100
AcDbEntity
  8
NoLayerName_001
  6
DOTSX
 62
     7
370
    25
100
AcDbLine
 10
87.45198529728441
 20
269.621577629791
 30
0.0
 11
87.26064358110189
 21
270.0835173960467
 31
0.0
  0
LINE
  5
BC
330
1F
100
AcDbEntity
  8
NoLayerName_001
  6
DOTSX
 62
     7
370
    25
100
AcDbLine
 10
86.52810576477316
 20
269.2388941974259
 30
0.0
 11
86.3367640485906
 21
269.7008339636816
 31
0.0
  0
LINE
  5
BD
330
1F
100
AcDbEntity
  8
NoLayerName_001
  6
DOTSX
 62
     7
370
    25
100
AcDbLine
 10
87.26064358110193
 20
270.0835173960467
 30
0.0
 11
86.33676404859064
 21
269.7008339636816
 31
0.0
  0
ARC
  5
BE
330
1F
100
AcDbEntity
  8
NoLayerName_001
  6
DOTSX
 62
     7
370
    25
100
AcDbCircle
 10
86.06616599851748
 20
269.0475524812434
 30
0.0
 40
0.5
100
AcDbArc
 50
292.4999999999999
 51
22.49999999999911
  0
LINE
  5
BF
330
1F
100
AcDbEntity
  8
NoLayerName_001
  6
DOTSX
 62
     7
370
    25
100
AcDbLine
 10
86.25750771470007
 20
268.5856127149877
 30
0.0
 11
85.79556794844443
 21
268.3942709988052
 31
0.0
  0
LINE
  5
C0
330
1F
100
AcDbEntity
  8
NoLayerName_001
  6
DOTSX
 62
     7
370
    25
100
AcDbLine
 10
85.79556794844439
 20
268.3942709988052
 30
0.0
 11
86.17825138080946
 21
267.4703914662939
 31
0.0
  0
LINE
  5
C1
330
1F
100
AcDbEntity
  8
NoLayerName_001
  6
Continuous
 62
    30
370
    50
100
AcDbLine
 10
128.4347587322916
 20
158.9213434954422
 30
0.0
 11
128.6927433485357
 21
158.298513536022
 31
0.0
  0
LINE
  5
C2
330
1F
100
AcDbEntity
  8
NoLayerName_001
  6
Continuous
 62
    30
370
    50
100
AcDbLine
 10
135.8257949923818
 20
161.9828109543621
 30
0.0
 11
135.9816170529652
 21
161.6066232223848
 31
0.0
  0
CIRCLE
  5
C3
330
1F
100
AcDbEntity
  8
NoLayerName_001
  6
DOTSX
 62
     7
370
    25
100
AcDbCircle
 10
131.764007117743
 20
161.3363306097864
 30
0.0
 40
1.5
  0
LINE
  5
C4
330
1F
100
AcDbEntity
  8
NoLayerName_001
  6
DOTSX
 62
     7
370
    25
100
AcDbLine
 10
135.8257949923818
 20
161.9828109543621
 30
0.0
 11
134.010428075108
 21
166.3654943867281
 31
0.0
  0
LINE
  5
C5
330
1F
100
AcDbEntity
  8
NoLayerName_001
  6
DOTSX
 62
     7
370
    25
100
AcDbLine
 10
128.4347587322916
 20
158.9213434954422
 30
0.0
 11
126.619391815018
 21
163.3040269278075
 31
0.0
  0
LINE
  5
C6
330
1F
100
AcDbEntity
  8
NoLayerName_001
  6
DOTSX
 62
     7
370
    25
100
AcDbLine
 10
126.1879021436424
 20
268.1100777761697
 30
0.0
 11
124.8485101303644
 21
264.8764994123799
 31
0.0
  0
LINE
  5
C7
330
1F
100
AcDbEntity
  8
NoLayerName_001
  6
DOTSX
 62
     7
370
    25
100
AcDbLine
 10
125.2812987201343
 20
265.9213434954423
 30
0.0
 11
130.6932597215954
 21
265.9213434954423
 31
0.0
  0
LINE
  5
C8
330
1F
100
AcDbEntity
  8
NoLayerName_001
  6
DOTSX
 62
     7
370
    25
100
AcDbLine
 10
134.0873054554773
 20
261.0496650887288
 30
0.0
 11
135.4266974687552
 21
264.2832434525185
 31
0.0
  0
LINE
  5
C9
330
1F
100
AcDbEntity
  8
NoLayerName_001
  6
DOTSX
 62
     7
370
    25
100
AcDbLine
 10
134.5200940452468
 20
262.0945091717907
 30
0.0
 11
130.6932597215954
 21
265.9213434954421
 31
0.0
  0
LINE
  5
CA
330
1F
100
AcDbEntity
  8
NoLayerName_001
  6
DOTSX
 62
     7
370
    25
100
AcDbLine
 10
134.0873054554773
 20
261.0496650887288
 30
0.0
 11
124.8485101303643
 21
264.8764994123797
 31
0.0
  0
LINE
  5
CB
330
1F
100
AcDbEntity
  8
NoLayerName_001
  6
DOTSX
 62
     7
370
    25
100
AcDbLine
 10
123.6325876715578
 20
265.9213434954423
 30
0.0
 11
135.6859088079109
 21
260.9286944091266
 31
0.0
  0
LINE
  5
CC
330
1F
100
AcDbEntity
  8
NoLayerName_001
  6
DOTSX
 62
     7
370
    25
100
AcDbLine
 10
135.4266974687551
 20
264.2832434525185
 30
0.0
 11
126.1879021436421
 21
268.1100777761695
 31
0.0
  0
ARC
  5
CD
330
1F
100
AcDbEntity
  8
NoLayerName_001
  6
DOTSX
 62
     7
370
    25
100
AcDbCircle
 10
89.47901026547316
 20
263.4213434954414
 30
0.0
 40
3.0
100
AcDbArc
 50
89.9999999999998
 51
134.9999999999998
  0
LINE
  5
CE
330
1F
100
AcDbEntity
  8
NoLayerName_001
  6
DOTSX
 62
     7
370
    25
100
AcDbLine
 10
60.20646808349198
 20
240.7796729236293
 30
0.0
 11
56.37963375984102
 21
231.5408775985163
 31
0.0
  0
LINE
  5
CF
330
1F
100
AcDbEntity
  8
NoLayerName_001
  6
DOTSX
 62
     7
370
    25
100
AcDbLine
 10
56.37963375984083
 20
231.5408775985163
 30
0.0
 11
59.61321212363065
 21
230.2014855852384
 31
0.0
  0
LINE
  5
D0
330
1F
100
AcDbEntity
  8
NoLayerName_001
  6
DOTSX
 62
     7
370
    25
100
AcDbLine
 10
63.44004644728176
 20
239.4402809103512
 30
0.0
 11
60.20646808349198
 21
240.7796729236292
 31
0.0
  0
LINE
  5
D1
330
1F
100
AcDbEntity
  8
NoLayerName_001
  6
DOTSX
 62
     7
370
    25
100
AcDbLine
 10
63.44004644728176
 20
239.4402809103512
 30
0.0
 11
59.61321212363082
 21
230.2014855852383
 31
0.0
  0
LINE
  5
D2
330
1F
100
AcDbEntity
  8
NoLayerName_001
  6
DOTSX
 62
     7
370
    25
100
AcDbLine
 10
62.39520236421907
 20
239.8730695001211
 30
0.0
 11
58.56836804056778
 21
236.0462351764698
 31
0.0
  0
LINE
  5
D3
330
1F
100
AcDbEntity
  8
NoLayerName_001
  6
DOTSX
 62
     7
370
    25
100
AcDbLine
 10
62.56836804056803
 20
195.4533060639064
 30
0.0
 11
62.568368040568
 21
234.3893809269774
 31
0.0
  0
LINE
  5
D4
330
1F
100
AcDbEntity
  8
NoLayerName_001
  6
DOTSX
 62
     7
370
    25
100
AcDbLine
 10
58.5683680405678
 20
230.6342741750084
 30
0.0
 11
58.5683680405678
 21
236.04623517647
 31
0.0
  0
LINE
  5
D5
330
1F
100
AcDbEntity
  8
NoLayerName_001
  6
DOTSX
 62
     7
370
    25
100
AcDbLine
 10
58.5683680405678
 20
230.6342741750084
 30
0.0
 11
58.56836804056784
 21
193.7964518144143
 31
0.0
  0
LINE
  5
D6
330
1F
100
AcDbEntity
  8
NoLayerName_001
  6
DOTSX
 62
     7
370
    25
100
AcDbLine
 10
58.06836804056871
 20
193.5893450332285
 30
0.0
 11
58.06836804056882
 21
223.2646355541477
 31
0.0
  0
LINE
  5
D7
330
1F
100
AcDbEntity
  8
NoLayerName_001
  6
DOTSX
 62
     7
370
    25
100
AcDbLine
 10
58.06836804056871
 20
193.5893450332285
 30
0.0
 11
79.05196720159205
 21
172.605745872205
 31
0.0
  0
ARC
  5
D8
330
1F
100
AcDbEntity
  8
NoLayerName_001
  6
DOTSX
 62
     7
370
    25
100
AcDbCircle
 10
61.06836804056871
 20
194.8319857203476
 30
0.0
 40
3.0
100
AcDbArc
 50
179.9999999999998
 51
224.9999999999998
  0
LINE
  5
D9
330
1F
100
AcDbEntity
  8
NoLayerName_001
  6
DOTSX
 62
     7
370
    25
100
AcDbLine
 10
88.4434763595404
 20
163.9213434954421
 30
0.0
 11
58.56836804056829
 21
193.7964518144142
 31
0.0
  0
LINE
  5
DA
330
1F
100
AcDbEntity
  8
NoLayerName_001
  6
DOTSX
 62
     7
370
    25
100
AcDbLine
 10
85.04943062565923
 20
168.7930219021557
 30
0.0
 11
83.7100386123813
 21
165.5594435383659
 31
0.0
  0
LINE
  5
DB
330
1F
100
AcDbEntity
  8
NoLayerName_001
  6
DOTSX
 62
     7
370
    25
100
AcDbLine
 10
83.71003861238142
 20
165.5594435383661
 30
0.0
 11
92.94883393749444
 21
161.7326092147151
 31
0.0
  0
LINE
  5
DC
330
1F
100
AcDbEntity
  8
NoLayerName_001
  6
DOTSX
 62
     7
370
    25
100
AcDbLine
 10
85.04943062565923
 20
168.7930219021557
 30
0.0
 11
94.28822595077217
 21
164.9661875785048
 31
0.0
  0
CIRCLE
  5
DD
330
1F
100
AcDbEntity
  8
NoLayerName_001
  6
DOTSX
 62
     7
370
    25
100
AcDbCircle
 10
89.59940134957043
 20
175.1533869312209
 30
0.0
 40
2.6
  0
ARC
  5
DE
330
1F
100
AcDbEntity
  8
NoLayerName_001
  6
DOTSX
 62
     7
370
    25
100
AcDbCircle
 10
89.59940134956975
 20
175.1533869312202
 30
0.0
 40
5.0
100
AcDbArc
 50
315.0
 51
134.9999999999999
  0
LINE
  5
DF
330
1F
100
AcDbEntity
  8
NoLayerName_001
  6
DOTSX
 62
     7
370
    25
100
AcDbLine
 10
83.40541713666545
 20
176.0304705301821
 30
0.0
 11
86.06386744363682
 21
178.6889208371535
 31
0.0
  0
ARC
  5
E0
330
1F
100
AcDbEntity
  8
NoLayerName_001
  6
DOTSX
 62
     7
370
    25
100
AcDbCircle
 10
82.69831035547946
 20
176.7375773113686
 30
0.0
 40
1.0
100
AcDbArc
 50
225.0
 51
315.0
  0
LINE
  5
E1
330
1F
100
AcDbEntity
  8
NoLayerName_001
  6
DOTSX
 62
     7
370
    25
100
AcDbLine
 10
91.0946354544563
 20
169.5775532242419
 30
0.0
 11
93.13493525550221
 21
171.6178530252878
 31
0.0
  0
ARC
  5
E2
330
1F
100
AcDbEntity
  8
NoLayerName_001
  6
DOTSX
 62
     7
370
    25
100
AcDbCircle
 10
91.84921400691366
 20
168.9213434954422
 30
0.0
 40
1.0
100
AcDbArc
 50
138.988558231088
 51
277.0953237122092
  0
LINE
  5
E3
330
1F
100
AcDbEntity
  8
NoLayerName_001
  6
DOTSX
 62
     7
370
    25
100
AcDbLine
 10
92.94883393749416
 20
161.7326092147149
 30
0.0
 11
94.2882259507721
 21
164.9661875785047
 31
0.0
  0
LINE
  5
E4
330
1F
100
AcDbEntity
  8
NoLayerName_001
  6
DOTSX
 62
     7
370
    25
100
AcDbLine
 10
88.4434763595404
 20
163.9213434954421
 30
0.0
 11
130.693259721596
 21
163.9213434954421
 31
0.0
  0
LINE
  5
E5
330
1F
100
AcDbEntity
  8
NoLayerName_001
  6
DOTSX
 62
     7
370
    25
100
AcDbLine
 10
129.6577258156631
 20
163.4213434954428
 30
0.0
 11
101.2250759818629
 21
163.4213434954429
 31
0.0
  0
ARC
  5
E6
330
1F
100
AcDbEntity
  8
NoLayerName_001
  6
DOTSX
 62
     7
370
    25
100
AcDbCircle
 10
127.2723010829018
 20
168.9331392056464
 30
0.0
 40
1.0
100
AcDbArc
 50
274.4012543237221
 51
45.0
  0
LINE
  5
E7
330
1F
100
AcDbEntity
  8
NoLayerName_001
  6
DOTSX
 62
     7
370
    25
100
AcDbLine
 10
127.9794078640885
 20
169.6402459868326
 30
0.0
 11
126.0018008256336
 21
171.6178530252875
 31
0.0
  0
ARC
  5
E8
330
1F
100
AcDbEntity
  8
NoLayerName_001
  6
DOTSX
 62
     7
370
    25
100
AcDbCircle
 10
136.4384257256571
 20
176.7375773113685
 30
0.0
 40
1.0
100
AcDbArc
 50
225.0
 51
315.0
  0
CIRCLE
  5
E9
330
1F
100
AcDbEntity
  8
NoLayerName_001
  6
DOTSX
 62
     7
370
    25
100
AcDbCircle
 10
129.5373347315659
 20
175.1533869312206
 30
0.0
 40
2.25
  0
CIRCLE
  5
EA
330
1F
100
AcDbEntity
  8
NoLayerName_001
  6
DOTSX
 62
     7
370
    25
100
AcDbCircle
 10
129.5373347315659
 20
175.1533869312206
 30
0.0
 40
1.75
  0
LINE
  5
EB
330
1F
100
AcDbEntity
  8
NoLayerName_001
  6
DOTSX
 62
     7
370
    25
100
AcDbLine
 10
135.7313189444704
 20
176.0304705301818
 30
0.0
 11
133.0728686374991
 21
178.688920837153
 31
0.0
  0
ARC
  5
EC
330
1F
100
AcDbEntity
  8
NoLayerName_001
  6
DOTSX
 62
     7
370
    25
100
AcDbCircle
 10
129.5373347315659
 20
175.1533869312206
 30
0.0
 40
5.0
100
AcDbArc
 50
45.0000000000001
 51
225.0
  0
LINE
  5
ED
330
1F
100
AcDbEntity
  8
NoLayerName_001
  6
DOTSX
 62
     7
370
    25
100
AcDbLine
 10
131.7790461592227
 20
164.300023151883
 30
0.0
 11
151.8839656638057
 21
184.4049426564659
 31
0.0
  0
ARC
  5
EE
330
1F
100
AcDbEntity
  8
NoLayerName_001
  6
DOTSX
 62
     7
370
    25
100
AcDbCircle
 10
129.6577258156631
 20
166.4213434954429
 30
0.0
 40
3.0
100
AcDbArc
 50
270.0
 51
315.0
  0
ARC
  5
EF
330
1F
100
AcDbEntity
  8
NoLayerName_001
  6
DOTSX
 62
     7
370
    25
100
AcDbCircle
 10
125.6955122825062
 20
162.9213434954423
 30
0.0
 40
1.0
100
AcDbArc
 50
30.00000000000857
 51
90.0000000000002
  0
ARC
  5
F0
330
1F
100
AcDbEntity
  8
NoLayerName_001
  6
DOTSX
 62
     7
370
    25
100
AcDbCircle
 10
125.6955122825062
 20
162.9213434954423
 30
0.0
 40
1.0
100
AcDbArc
 50
22.49999999999992
 51
30.00000000000857
  0
ARC
  5
F1
330
1F
100
AcDbEntity
  8
NoLayerName_001
  6
DOTSX
 62
     7
370
    25
100
AcDbCircle
 10
134.9343076076194
 20
166.748177819093
 30
0.0
 40
1.0
100
AcDbArc
 50
135.0000000000002
 51
195.000000000023
  0
ARC
  5
F2
330
1F
100
AcDbEntity
  8
NoLayerName_001
  6
DOTSX
 62
     7
370
    25
100
AcDbCircle
 10
134.9343076076194
 20
166.748177819093
 30
0.0
 40
1.0
100
AcDbArc
 50
195.000000000023
 51
202.4999999999999
  0
LINE
  5
F3
330
1F
100
AcDbEntity
  8
NoLayerName_001
  6
DOTSX
 62
     7
370
    25
100
AcDbLine
 10
155.696689633855
 20
190.4024060805333
 30
0.0
 11
158.9302679976448
 21
189.0630140672554
 31
0.0
  0
LINE
  5
F4
330
1F
100
AcDbEntity
  8
NoLayerName_001
  6
DOTSX
 62
     7
370
    25
100
AcDbLine
 10
156.7415337169178
 20
189.9696174907635
 30
0.0
 11
160.5683680405683
 21
193.796451814414
 31
0.0
  0
LINE
  5
F5
330
1F
100
AcDbEntity
  8
NoLayerName_001
  6
DOTSX
 62
     7
370
    25
100
AcDbLine
 10
156.7415337169178
 20
189.9696174907635
 30
0.0
 11
130.6932597215964
 21
163.9213434954422
 31
0.0
  0
LINE
  5
F6
330
1F
100
AcDbEntity
  8
NoLayerName_001
  6
DOTSX
 62
     7
370
    25
100
AcDbLine
 10
160.5683680405678
 20
199.2084128158766
 30
0.0
 11
160.5683680405678
 21
193.796451814414
 31
0.0
  0
LINE
  5
F7
330
1F
100
AcDbEntity
  8
NoLayerName_001
  6
DOTSX
 62
     7
370
    25
100
AcDbLine
 10
158.9302679976448
 20
189.0630140672555
 30
0.0
 11
162.7571023212957
 21
198.3018093923685
 31
0.0
  0
LINE
  5
F8
330
1F
100
AcDbEntity
  8
NoLayerName_001
  6
DOTSX
 62
     7
370
    25
100
AcDbLine
 10
162.7571023212957
 20
198.3018093923682
 30
0.0
 11
159.5235239575059
 21
199.6412014056462
 31
0.0
  0
LINE
  5
F9
330
1F
100
AcDbEntity
  8
NoLayerName_001
  6
DOTSX
 62
     7
370
    25
100
AcDbLine
 10
155.696689633855
 20
190.4024060805333
 30
0.0
 11
159.5235239575059
 21
199.6412014056462
 31
0.0
  0
LINE
  5
FA
330
1F
100
AcDbEntity
  8
NoLayerName_001
  6
DOTSX
 62
     7
370
    25
100
AcDbLine
 10
129.0364054721036
 20
167.9213434954421
 30
0.0
 11
156.5683680405681
 21
195.4533060639066
 31
0.0
  0
LINE
  5
FB
330
1F
100
AcDbEntity
  8
NoLayerName_001
  6
DOTSX
 62
     7
370
    25
100
AcDbLine
 10
156.5683680405678
 20
234.3893809269778
 30
0.0
 11
156.5683680405678
 21
195.4533060639068
 31
0.0
  0
ARC
  5
FC
330
1F
100
AcDbEntity
  8
NoLayerName_001
  6
DOTSX
 62
     7
370
    25
100
AcDbCircle
 10
158.0683680405676
 20
235.0107012705375
 30
0.0
 40
3.0
100
AcDbArc
 50
359.9999999999998
 51
44.99999999999979
  0
LINE
  5
FD
330
1F
100
AcDbEntity
  8
NoLayerName_001
  6
Continuous
 62
     8
370
    50
100
AcDbLine
 10
135.6932597215965
 20
161.8502756835767
 30
0.0
 11
158.4929621664567
 21
184.6499781284369
 31
0.0
  0
CIRCLE
  5
FE
330
1F
100
AcDbEntity
  8
NoLayerName_001
  6
Continuous
 62
     8
370
    50
100
AcDbCircle
 10
109.5683680405683
 20
214.9213434954423
 30
0.0
 40
11.25
  0
CIRCLE
  5
FF
330
1F
100
AcDbEntity
  8
NoLayerName_001
  6
DOTSX
 62
     7
370
    25
100
AcDbCircle
 10
109.5683680405682
 20
214.9213434954426
 30
0.0
 40
6.25
  0
CIRCLE
  5
100
330
1F
100
AcDbEntity
  8
NoLayerName_001
  6
DOTSX
 62
     7
370
    25
100
AcDbCircle
 10
102.2973828256314
 20
232.4750546131568
 30
0.0
 40
3.0
  0
CIRCLE
  5
101
330
1F
100
AcDbEntity
  8
NoLayerName_001
  6
DOTSX
 62
     7
370
    25
100
AcDbCircle
 10
102.2973828256314
 20
232.4750546131568
 30
0.0
 40
2.0
  0
CIRCLE
  5
102
330
1F
100
AcDbEntity
  8
NoLayerName_001
  6
DOTSX
 62
     7
370
    25
100
AcDbCircle
 10
116.8393532555052
 20
197.3676323777279
 30
0.0
 40
3.0
  0
CIRCLE
  5
103
330
1F
100
AcDbEntity
  8
NoLayerName_001
  6
DOTSX
 62
     7
370
    25
100
AcDbCircle
 10
116.8393532555052
 20
197.3676323777279
 30
0.0
 40
2.0
  0
LINE
  5
104
330
1F
100
AcDbEntity
  8
NoLayerName_001
  6
CENTER
 62
     3
370
    25
100
AcDbLine
 10
168.0840616200041
 20
214.9213434954423
 30
0.0
 11
47.94250462747328
 21
214.9213434954424
 31
0.0
  0
LINE
  5
105
330
1F
100
AcDbEntity
  8
NoLayerName_001
  6
CENTER
 62
     3
370
    25
100
AcDbLine
 10
109.5683680405683
 20
272.0496045559613
 30
0.0
 11
109.5683680405682
 21
155.9418433694509
 31
0.0
  0
LINE
  5
106
330
1F
100
AcDbEntity
  8
NoLayerName_001
  6
CENTER
 62
     3
370
    25
100
AcDbLine
 10
109.5683680405683
 20
151.6970054838346
 30
0.0
 11
109.5683680405682
 21
80.18706965846702
 31
0.0
  0
LINE
  5
107
330
1F
100
AcDbEntity
  8
NoLayerName_001
  6
Continuous
 62
     8
370
    50
100
AcDbLine
 10
98.4434763595404
 20
131.0919741512271
 30
0.0
 11
98.4434763595404
 21
139.0919741512271
 31
0.0
  0
LINE
  5
108
330
1F
100
AcDbEntity
  8
NoLayerName_001
  6
Continuous
 62
     8
370
    50
100
AcDbLine
 10
83.45082727322603
 20
131.0919741512271
 30
0.0
 11
83.45082727322603
 21
139.0919741512271
 31
0.0
  0
LINE
  5
109
330
1F
100
AcDbEntity
  8
NoLayerName_001
  6
Continuous
 62
     8
370
    50
100
AcDbLine
 10
83.45082727322603
 20
131.0919741512271
 30
0.0
 11
98.44347635954041
 21
131.0919741512271
 31
0.0
  0
LINE
  5
10A
330
1F
100
AcDbEntity
  8
NoLayerName_001
  6
Continuous
 62
     8
370
    50
100
AcDbLine
 10
77.83687464174216
 20
91.09197415122753
 30
0.0
 11
95.50414840957629
 21
91.09197415122753
 31
0.0
  0
LINE
  5
10B
330
1F
100
AcDbEntity
  8
NoLayerName_001
  6
Continuous
 62
     8
370
    50
100
AcDbLine
 10
81.37240854767492
 20
91.09197415122753
 30
0.0
 11
81.37240854767492
 21
83.0919741512273
 31
0.0
  0
LINE
  5
10C
330
1F
100
AcDbEntity
  8
NoLayerName_001
  6
Continuous
 62
     8
370
    50
100
AcDbLine
 10
77.83687464174216
 20
91.09197415122753
 30
0.0
 11
77.83687464174216
 21
83.0919741512273
 31
0.0
  0
LINE
  5
10D
330
1F
100
AcDbEntity
  8
NoLayerName_001
  6
Continuous
 62
     8
370
    50
100
AcDbLine
 10
95.50414840957632
 20
91.09197415122753
 30
0.0
 11
95.50414840957632
 21
83.0919741512273
 31
0.0
  0
LINE
  5
10E
330
1F
100
AcDbEntity
  8
NoLayerName_001
  6
Continuous
 62
    21
370
    50
100
AcDbLine
 10
159.5539541948295
 20
184.6893155198737
 30
0.0
 11
151.8839656638056
 21
184.4049426564662
 31
0.0
  0
ARC
  5
10F
330
1F
100
AcDbEntity
  8
NoLayerName_001
  6
Continuous
 62
    21
370
    50
100
AcDbCircle
 10
159.4428024208758
 20
187.6872556932508
 30
0.0
 40
3.0
100
AcDbArc
 50
272.1233284986241
 51
337.5000000000001
  0
LINE
  5
110
330
1F
100
AcDbEntity
  8
NoLayerName_001
  6
Continuous
 62
    21
370
    50
100
AcDbLine
 10
162.2144410184094
 20
186.5392053961552
 30
0.0
 11
166.8639655606204
 21
197.7641506045477
 31
0.0
  0
ARC
  5
111
330
1F
100
AcDbEntity
  8
NoLayerName_001
  6
Continuous
 62
    21
370
    50
100
AcDbCircle
 10
164.0923269630867
 20
198.9122009016432
 30
0.0
 40
3.0
100
AcDbArc
 50
337.4999999999999
 51
42.87667150137437
  0
LINE
  5
112
330
1F
100
AcDbEntity
  8
NoLayerName_001
  6
Continuous
 62
    21
370
    50
100
AcDbLine
 10
166.2907869623767
 20
200.9534685547259
 30
0.0
 11
161.0683680405675
 21
206.578051436737
 31
0.0
  0
LINE
  5
113
330
1F
100
AcDbEntity
  8
NoLayerName_001
  6
Continuous
 62
    21
370
    50
100
AcDbLine
 10
137.9505061398555
 20
267.5674164732832
 30
0.0
 11
126.725560931463
 21
272.2169410154942
 31
0.0
  0
ARC
  5
114
330
1F
100
AcDbEntity
  8
NoLayerName_001
  6
Continuous
 62
    21
370
    50
100
AcDbCircle
 10
125.5775106343675
 20
269.4453024179605
 30
0.0
 40
3.0
100
AcDbArc
 50
67.49999999999997
 51
132.8766715013743
  0
LINE
  5
115
330
1F
100
AcDbEntity
  8
NoLayerName_001
  6
Continuous
 62
    21
370
    50
100
AcDbLine
 10
117.9116600992737
 20
266.4213434954415
 30
0.0
 11
123.5362429812847
 21
271.6437624172505
 31
0.0
  0
ARC
  5
116
330
1F
100
AcDbEntity
  8
NoLayerName_001
  6
Continuous
 62
    21
370
    50
100
AcDbCircle
 10
136.8024558427599
 20
264.7957778757496
 30
0.0
 40
3.0
100
AcDbArc
 50
2.123328498624055
 51
67.50000000000013
  0
LINE
  5
117
330
1F
100
AcDbEntity
  8
NoLayerName_001
  6
Continuous
 62
    21
370
    50
100
AcDbLine
 10
140.0847688795443
 20
257.2369411186802
 30
0.0
 11
139.8003960161368
 21
264.9069296497033
 31
0.0
  0
LINE
  5
118
330
1F
100
AcDbEntity
  8
NoLayerName_001
  6
Continuous
 62
    21
370
    50
100
AcDbLine
 10
67.25277041733045
 20
245.4377443344183
 30
0.0
 11
59.58278188630706
 21
245.1533714710108
 31
0.0
  0
ARC
  5
119
330
1F
100
AcDbEntity
  8
NoLayerName_001
  6
Continuous
 62
    21
370
    50
100
AcDbCircle
 10
59.69393366026094
 20
242.1554312976339
 30
0.0
 40
3.0
100
AcDbArc
 50
92.12332849862406
 51
157.5000000000001
  0
LINE
  5
11A
330
1F
100
AcDbEntity
  8
NoLayerName_001
  6
Continuous
 62
    21
370
    50
100
AcDbLine
 10
56.92229506272707
 20
243.3034815947294
 30
0.0
 11
52.27277052051608
 21
232.078536386337
 31
0.0
  0
LINE
  5
11B
330
1F
100
AcDbEntity
  8
NoLayerName_001
  6
Continuous
 62
    21
370
    50
100
AcDbLine
 10
58.06836804056883
 20
223.2646355541477
 30
0.0
 11
52.84594911875986
 21
228.8892184361587
 31
0.0
  0
ARC
  5
11C
330
1F
100
AcDbEntity
  8
NoLayerName_001
  6
Continuous
 62
    21
370
    50
100
AcDbCircle
 10
55.04440911804983
 20
230.9304860892414
 30
0.0
 40
3.0
100
AcDbArc
 50
157.5
 51
222.8766715013744
  0
ARC
  5
11D
330
1F
100
AcDbEntity
  8
NoLayerName_001
  6
Continuous
 62
    21
370
    50
100
AcDbCircle
 10
82.33428023837683
 20
165.046909115135
 30
0.0
 40
3.0
100
AcDbArc
 50
182.1233284986241
 51
247.5000000000001
  0
LINE
  5
11E
330
1F
100
AcDbEntity
  8
NoLayerName_001
  6
Continuous
 62
    21
370
    50
100
AcDbLine
 10
79.33634006499966
 20
164.9357573411812
 30
0.0
 11
79.05196720159215
 21
172.6057458722051
 31
0.0
  0
LINE
  5
11F
330
1F
100
AcDbEntity
  8
NoLayerName_001
  6
Continuous
 62
    21
370
    50
100
AcDbLine
 10
81.18622994128128
 20
162.2752705176013
 30
0.0
 11
92.41117514967371
 21
157.6257459753903
 31
0.0
  0
ARC
  5
120
330
1F
100
AcDbEntity
  8
NoLayerName_001
  6
Continuous
 62
    21
370
    50
100
AcDbCircle
 10
93.55922544676906
 20
160.3973845729239
 30
0.0
 40
3.0
100
AcDbArc
 50
247.5
 51
312.8766715013744
  0
LINE
  5
121
330
1F
100
AcDbEntity
  8
NoLayerName_001
  6
Continuous
 62
    21
370
    50
100
AcDbLine
 10
95.6004930998518
 20
158.1989245736339
 30
0.0
 11
101.225075981863
 21
163.421343495443
 31
0.0
  0
LINE
  5
122
330
1F
100
AcDbEntity
  8
NoLayerName_001
  6
Continuous
 62
    21
370
    50
100
AcDbLine
 10
167.0923269630867
 20
143.5919741512271
 30
0.0
 11
167.0923269630867
 21
148.5919741512271
 31
0.0
  0
LINE
  5
123
330
1F
100
AcDbEntity
  8
NoLayerName_001
  6
Continuous
 62
    30
370
    50
100
AcDbLine
 10
165.568368040568
 20
83.0919741512273
 30
0.0
 11
175.0683680405684
 21
83.0919741512273
 31
0.0
  0
LINE
  5
124
330
1F
100
AcDbEntity
  8
NoLayerName_001
  6
Continuous
 62
    30
370
    50
100
AcDbLine
 10
53.56836804056803
 20
83.0919741512273
 30
0.0
 11
44.06836804056815
 21
83.0919741512273
 31
0.0
  0
LINE
  5
125
330
1F
100
AcDbEntity
  8
NoLayerName_001
  6
Continuous
 62
     8
370
    50
100
AcDbLine
 10
53.56836804056803
 20
83.0919741512273
 30
0.0
 11
165.568368040568
 21
83.0919741512273
 31
0.0
  0
LINE
  5
126
330
1F
100
AcDbEntity
  8
NoLayerName_001
  6
Continuous
 62
     8
370
    50
100
AcDbLine
 10
53.56836804056803
 20
139.0919741512271
 30
0.0
 11
155.5556303875013
 21
139.0919741512271
 31
0.0
  0
LINE
  5
127
330
1F
100
AcDbEntity
  8
NoLayerName_001
  6
Continuous
 62
    30
370
    50
100
AcDbLine
 10
92.71106493582289
 20
135.0919741512273
 30
0.0
 11
92.71106493582289
 21
131.0919741512273
 31
0.0
  0
LINE
  5
128
330
1F
100
AcDbEntity
  8
NoLayerName_001
  6
Continuous
 62
    30
370
    50
100
AcDbLine
 10
91.56301463872757
 20
135.0919741512273
 30
0.0
 11
91.56301463872757
 21
139.0919741512271
 31
0.0
  0
LINE
  5
129
330
1F
100
AcDbEntity
  8
NoLayerName_001
  6
Continuous
 62
    30
370
    50
100
AcDbLine
 10
92.71106493582289
 20
135.0919741512273
 30
0.0
 11
91.56301463872757
 21
135.0919741512273
 31
0.0
  0
LINE
  5
12A
330
1F
100
AcDbEntity
  8
NoLayerName_001
  6
Continuous
 62
    30
370
    50
100
AcDbLine
 10
90.03228090926729
 20
139.0919741512271
 30
0.0
 11
90.03228090926729
 21
131.0919741512273
 31
0.0
  0
LINE
  5
12B
330
1F
100
AcDbEntity
  8
NoLayerName_001
  6
Continuous
 62
    30
370
    50
100
AcDbLine
 10
83.56512418168819
 20
139.0919741512271
 30
0.0
 11
83.56512418168819
 21
131.0919741512271
 31
0.0
  0
LINE
  5
12C
330
1F
100
AcDbEntity
  8
NoLayerName_001
  6
Continuous
 62
    21
370
    50
100
AcDbLine
 10
52.04440911805005
 20
143.5919741512271
 30
0.0
 11
52.04440911805005
 21
148.5919741512271
 31
0.0
  0
LINE
  5
12D
330
1F
100
AcDbEntity
  8
NoLayerName_001
  6
Continuous
 62
    30
370
    50
100
AcDbLine
 10
52.04440911805005
 20
143.5919741512271
 30
0.0
 11
52.04440911805005
 21
139.0919741512271
 31
0.0
  0
LINE
  5
12E
330
1F
100
AcDbEntity
  8
NoLayerName_001
  6
Continuous
 62
    30
370
    50
100
AcDbLine
 10
53.25814077834394
 20
139.0919741512271
 30
0.0
 11
53.25814077834394
 21
131.0919741512271
 31
0.0
  0
LINE
  5
12F
330
1F
100
AcDbEntity
  8
NoLayerName_001
  6
Continuous
 62
    30
370
    50
100
AcDbLine
 10
53.56836804056803
 20
139.0919741512271
 30
0.0
 11
52.04440911805005
 21
139.0919741512271
 31
0.0
  0
LINE
  5
130
330
1F
100
AcDbEntity
  8
NoLayerName_001
  6
Continuous
 62
    30
370
    50
100
AcDbLine
 10
53.56836804056803
 20
131.0919741512271
 30
0.0
 11
53.25814077834394
 21
131.0919741512271
 31
0.0
  0
LINE
  5
131
330
1F
100
AcDbEntity
  8
NoLayerName_001
  6
Continuous
 62
    21
370
    50
100
AcDbLine
 10
53.2552563170683
 20
143.5919741512271
 30
0.0
 11
52.04440911805003
 21
143.5919741512271
 31
0.0
  0
LINE
  5
132
330
1F
100
AcDbEntity
  8
NoLayerName_001
  6
Continuous
 62
    21
370
    50
100
AcDbLine
 10
130.900366502782
 20
163.4213434954428
 30
0.0
 11
130.900366502782
 21
159.1843049043932
 31
0.0
  0
LINE
  5
133
330
1F
100
AcDbEntity
  8
NoLayerName_001
  6
Continuous
 62
    21
370
    50
100
AcDbLine
 10
130.900366502782
 20
163.4213434954428
 30
0.0
 11
133.8964052226625
 21
160.4253047755624
 31
0.0
  0
LINE
  5
134
330
1F
100
AcDbEntity
  8
NoLayerName_001
  6
Continuous
 62
    21
370
    50
100
AcDbLine
 10
161.0683680405677
 20
236.2533419576562
 30
0.0
 11
164.0644067604475
 21
239.2493806775359
 31
0.0
  0
LINE
  5
135
330
1F
100
AcDbEntity
  8
NoLayerName_001
  6
Continuous
 62
    21
370
    50
100
AcDbLine
 10
161.0683680405677
 20
236.2533419576562
 30
0.0
 11
165.3054066316165
 21
236.2533419576562
 31
0.0
  0
LINE
  5
136
330
1F
100
AcDbEntity
  8
NoLayerName_001
  6
Continuous
 62
    21
370
    50
100
AcDbLine
 10
88.23636957835441
 20
266.4213434954419
 30
0.0
 11
85.2403308584742
 21
269.4173822153221
 31
0.0
  0
LINE
  5
137
330
1F
100
AcDbEntity
  8
NoLayerName_001
  6
Continuous
 62
    21
370
    50
100
AcDbLine
 10
88.23636957835441
 20
266.4213434954419
 30
0.0
 11
88.23636957835441
 21
270.6583820864912
 31
0.0
  0
LINE
  5
138
330
1F
100
AcDbEntity
  8
NoLayerName_001
  6
Continuous
 62
    21
370
    50
100
AcDbLine
 10
58.06836804056871
 20
193.5893450332285
 30
0.0
 11
55.07232932068837
 21
190.5933063133482
 31
0.0
  0
LINE
  5
139
330
1F
100
AcDbEntity
  8
NoLayerName_001
  6
Continuous
 62
    21
370
    50
100
AcDbLine
 10
58.06836804056871
 20
193.5893450332285
 30
0.0
 11
53.83132944951902
 21
193.5893450332285
 31
0.0
  0
LINE
  5
13A
330
1F
100
AcDbEntity
  8
NoLayerName_001
  6
Continuous
 62
    21
370
    50
100
AcDbLine
 10
157.0775167868927
 20
143.5919741512271
 30
0.0
 11
167.0923269630867
 21
143.5919741512271
 31
0.0
  0
LINE
  5
13B
330
1F
100
AcDbEntity
  8
NoLayerName_001
  6
Continuous
 62
    30
370
    50
100
AcDbLine
 10
155.5556303875013
 20
139.0919741512271
 30
0.0
 11
167.0923269630867
 21
139.0919741512271
 31
0.0
  0
LINE
  5
13C
330
1F
100
AcDbEntity
  8
NoLayerName_001
  6
Continuous
 62
    30
370
    50
100
AcDbLine
 10
167.0923269630867
 20
143.5919741512271
 30
0.0
 11
167.0923269630867
 21
139.0919741512271
 31
0.0
  0
LINE
  5
13D
330
1F
100
AcDbEntity
  8
NoLayerName_001
  6
Continuous
 62
    21
370
    50
100
AcDbLine
 10
151.0776947767673
 20
148.5919741512271
 30
0.0
 11
167.0923269630867
 21
148.5919741512271
 31
0.0
  0
LINE
  5
13E
330
1F
100
AcDbEntity
  8
NoLayerName_001
  6
Continuous
 62
    21
370
    50
100
AcDbLine
 10
151.0776947767673
 20
148.5919741512271
 30
0.0
 11
129.5729018348489
 21
148.5919741512271
 31
0.0
  0
LINE
  5
13F
330
1F
100
AcDbEntity
  8
NoLayerName_001
  6
Continuous
 62
    21
370
    50
100
AcDbLine
 10
129.5729018348489
 20
148.5919741512271
 30
0.0
 11
102.2821347325752
 21
148.5919741512271
 31
0.0
  0
LINE
  5
140
330
1F
100
AcDbEntity
  8
NoLayerName_001
  6
Continuous
 62
    21
370
    50
100
AcDbLine
 10
78.0858422030745
 20
148.5919741512271
 30
0.0
 11
102.2821347325752
 21
148.5919741512271
 31
0.0
  0
LINE
  5
141
330
1F
100
AcDbEntity
  8
NoLayerName_001
  6
Continuous
 62
    21
370
    50
100
AcDbLine
 10
78.0858422030745
 20
148.5919741512271
 30
0.0
 11
57.80748425240987
 21
148.5919741512271
 31
0.0
  0
LINE
  5
142
330
1F
100
AcDbEntity
  8
NoLayerName_001
  6
Continuous
 62
    21
370
    50
100
AcDbLine
 10
57.86291342441825
 20
148.5919741512271
 30
0.0
 11
52.04440911805003
 21
148.5919741512271
 31
0.0
  0
LINE
  5
143
330
1F
100
AcDbEntity
  8
NoLayerName_001
  6
Continuous
 62
    21
370
    50
100
AcDbLine
 10
79.22431158596649
 20
143.5919741512271
 30
0.0
 11
97.81629336263819
 21
143.5919741512271
 31
0.0
  0
ARC
  5
144
330
1F
100
AcDbEntity
  8
NoLayerName_001
  6
Continuous
 62
     8
370
    50
100
AcDbCircle
 10
90.51454417140587
 20
168.9213434954421
 30
0.0
 40
10.0
100
AcDbArc
 50
233.6668746517294
 51
261.3331253482708
  0
ARC
  5
145
330
1F
100
AcDbEntity
  8
NoLayerName_001
  6
DOTSX
 62
     7
370
    25
100
AcDbCircle
 10
90.51454417140587
 20
168.9213434954421
 30
0.0
 40
10.0
100
AcDbArc
 50
261.3331253482708
 51
270.0000000000001
  0
ARC
  5
146
330
1F
100
AcDbEntity
  8
NoLayerName_001
  6
DOTSX
 62
     7
370
    25
100
AcDbCircle
 10
90.51454417140587
 20
168.9213434954421
 30
0.0
 40
10.0
100
AcDbArc
 50
225.0
 51
233.6668746517294
  0
ARC
  5
147
330
1F
100
AcDbEntity
  8
NoLayerName_001
  6
Continuous
 62
     8
370
    50
100
AcDbCircle
 10
155.5683680405677
 20
195.867519626279
 30
0.0
 40
10.0
100
AcDbArc
 50
323.6668746517377
 51
351.3331253482617
  0
ARC
  5
148
330
1F
100
AcDbEntity
  8
NoLayerName_001
  6
DOTSX
 62
     7
370
    25
100
AcDbCircle
 10
155.5683680405677
 20
195.867519626279
 30
0.0
 40
10.0
100
AcDbArc
 50
315.0000000000001
 51
323.6668746517377
  0
ARC
  5
149
330
1F
100
AcDbEntity
  8
NoLayerName_001
  6
DOTSX
 62
     7
370
    25
100
AcDbCircle
 10
155.5683680405677
 20
195.867519626279
 30
0.0
 40
10.0
100
AcDbArc
 50
351.3331253482617
 51
0.0000000000000398
  0
ARC
  5
14A
330
1F
100
AcDbEntity
  8
NoLayerName_001
  6
Continuous
 62
     8
370
    50
100
AcDbCircle
 10
128.6221919097297
 20
260.9213434954423
 30
0.0
 40
10.0
100
AcDbArc
 50
53.66687465173897
 51
81.3331253482614
  0
ARC
  5
14B
330
1F
100
AcDbEntity
  8
NoLayerName_001
  6
DOTSX
 62
     7
370
    25
100
AcDbCircle
 10
128.6221919097297
 20
260.9213434954423
 30
0.0
 40
10.0
100
AcDbArc
 50
45.00000000000006
 51
53.66687465173897
  0
ARC
  5
14C
330
1F
100
AcDbEntity
  8
NoLayerName_001
  6
DOTSX
 62
     7
370
    25
100
AcDbCircle
 10
128.6221919097297
 20
260.9213434954423
 30
0.0
 40
10.0
100
AcDbArc
 50
81.33312534826139
 51
90.00000000000004
  0
ARC
  5
14D
330
1F
100
AcDbEntity
  8
NoLayerName_001
  6
Continuous
 62
     8
370
    50
100
AcDbCircle
 10
90.51454417140559
 20
260.9213434954423
 30
0.0
 40
10.0
100
AcDbArc
 50
90.00000000000006
 51
135.0000000000001
  0
ARC
  5
14E
330
1F
100
AcDbEntity
  8
NoLayerName_001
  6
DOTSX
 62
     7
370
    25
100
AcDbCircle
 10
87.37272896339391
 20
268.5063563810972
 30
0.0
 40
2.503978285819675
100
AcDbArc
 50
162.6846091966694
 51
62.31539080331522
  0
ARC
  5
14F
330
1F
100
AcDbEntity
  8
NoLayerName_001
  6
Continuous
 62
    30
370
    50
100
AcDbCircle
 10
87.37272896339391
 20
268.5063563810972
 30
0.0
 40
2.503978285819675
100
AcDbArc
 50
62.31539080331523
 51
162.6846091966694
  0
ARC
  5
150
330
1F
100
AcDbEntity
  8
NoLayerName_001
  6
Continuous
 62
     8
370
    50
100
AcDbCircle
 10
155.5683680405677
 20
233.9751673646043
 30
0.0
 40
10.0
100
AcDbArc
 50
0.0
 51
45.00000000000004
  0
ARC
  5
151
330
1F
100
AcDbEntity
  8
NoLayerName_001
  6
Continuous
 62
     8
370
    50
100
AcDbCircle
 10
128.622191909731
 20
168.9213434954421
 30
0.0
 40
10.0
100
AcDbArc
 50
270.0000000000001
 51
315.0000000000001
  0
ARC
  5
152
330
1F
100
AcDbEntity
  8
NoLayerName_001
  6
Continuous
 62
     8
370
    50
100
AcDbCircle
 10
63.56836804056786
 20
195.8675196262801
 30
0.0
 40
10.0
100
AcDbArc
 50
180.0
 51
225.0
  0
ARC
  5
153
330
1F
100
AcDbEntity
  8
NoLayerName_001
  6
Continuous
 62
     8
370
    50
100
AcDbCircle
 10
63.5683680405678
 20
233.9751673646044
 30
0.0
 40
10.0
100
AcDbArc
 50
143.6668746517295
 51
171.3331253482718
  0
ARC
  5
154
330
1F
100
AcDbEntity
  8
NoLayerName_001
  6
DOTSX
 62
     7
370
    25
100
AcDbCircle
 10
63.5683680405678
 20
233.9751673646044
 30
0.0
 40
10.0
100
AcDbArc
 50
135.0000000000001
 51
143.6668746517295
  0
ARC
  5
155
330
1F
100
AcDbEntity
  8
NoLayerName_001
  6
DOTSX
 62
     7
370
    25
100
AcDbCircle
 10
63.5683680405678
 20
233.9751673646044
 30
0.0
 40
10.0
100
AcDbArc
 50
171.3331253482718
 51
180.0
  0
LINE
  5
156
330
1F
100
AcDbEntity
  8
NoLayerName_001
  6
Continuous
 62
    21
370
    50
100
AcDbLine
 10
131.415910851958
 20
147.3687094747798
 30
0.0
 11
133.8964052226625
 21
141.4830836335518
 31
0.0
  0
LINE
  5
157
330
1F
100
AcDbEntity
  8
NoLayerName_001
  6
Continuous
 62
    21
370
    50
100
AcDbLine
 10
130.900366502782
 20
147.5919741512271
 30
0.0
 11
130.900366502782
 21
139.0919741512271
 31
0.0
  0
LINE
  5
158
330
1F
100
AcDbEntity
  8
NoLayerName_001
  6
Continuous
 62
    21
370
    50
100
AcDbLine
 10
133.8964052226625
 20
141.4830836335518
 30
0.0
 11
159.3299038438997
 21
141.4830836335518
 31
0.0
  0
LINE
  5
159
330
1F
100
AcDbEntity
  8
NoLayerName_001
  6
Continuous
 62
    21
370
    50
100
AcDbLine
 10
152.4648057860784
 20
148.0327805392778
 30
0.0
 11
159.3143121445458
 21
141.4385387612202
 31
0.0
  0
LINE
  5
15A
330
1F
100
AcDbEntity
  8
NoLayerName_001
  6
Continuous
 62
    21
370
    50
100
AcDbLine
 10
96.37854349413841
 20
141.4830836335518
 30
0.0
 11
130.900366502782
 21
141.4830836335518
 31
0.0
  0
LINE
  5
15B
330
1F
100
AcDbEntity
  8
NoLayerName_001
  6
Continuous
 62
    21
370
    50
100
AcDbLine
 10
100.6296326243377
 20
147.7185782441855
 30
0.0
 11
96.3785434941384
 21
141.4830836335518
 31
0.0
  0
LINE
  5
15C
330
1F
100
AcDbEntity
  8
NoLayerName_001
  6
Continuous
 62
    21
370
    50
100
AcDbLine
 10
54.8863875252286
 20
141.4830836335518
 30
0.0
 11
79.29700267356282
 21
141.4830836335518
 31
0.0
  0
LINE
  5
15D
330
1F
100
AcDbEntity
  8
NoLayerName_001
  6
Continuous
 62
    21
370
    50
100
AcDbLine
 10
55.83721794881647
 20
146.9355592104546
 30
0.0
 11
54.8863875252286
 21
141.4830836335518
 31
0.0
  0
LINE
  5
15E
330
1F
100
AcDbEntity
  8
NoLayerName_001
  6
Continuous
 62
    21
370
    50
100
AcDbLine
 10
55.26125418945546
 20
147.0857509836665
 30
0.0
 11
52.04440911805005
 21
141.4830836335518
 31
0.0
  0
LINE
  5
15F
330
1F
100
AcDbEntity
  8
NoLayerName_001
  6
Continuous
 62
    21
370
    50
100
AcDbLine
 10
79.08524868016063
 20
147.6264225700337
 30
0.0
 11
79.29700267356282
 21
141.4830836335518
 31
0.0
  0
ARC
  5
160
330
1F
100
AcDbEntity
  8
NoLayerName_001
  6
Continuous
 62
    21
370
    50
100
AcDbCircle
 10
57.86291342441825
 20
145.591974151227
 30
0.0
 40
3.0
100
AcDbArc
 50
89.99999999999999
 51
150.1371458489987
  0
ARC
  5
161
330
1F
100
AcDbEntity
  8
NoLayerName_001
  6
Continuous
 62
    21
370
    50
100
AcDbCircle
 10
57.80748425240987
 20
146.5919741512271
 30
0.0
 40
2.0
100
AcDbArc
 50
89.99999999999999
 51
170.1079431063157
  0
ARC
  5
162
330
1F
100
AcDbEntity
  8
NoLayerName_001
  6
Continuous
 62
    21
370
    50
100
AcDbCircle
 10
78.0858422030745
 20
147.591974151227
 30
0.0
 40
1.0
100
AcDbArc
 50
1.974139589668908
 51
89.99999999999999
  0
ARC
  5
163
330
1F
100
AcDbEntity
  8
NoLayerName_001
  6
Continuous
 62
    21
370
    50
100
AcDbCircle
 10
102.2821347325752
 20
146.5919741512271
 30
0.0
 40
2.0
100
AcDbArc
 50
89.99999999999999
 51
145.7155347238132
  0
ARC
  5
164
330
1F
100
AcDbEntity
  8
NoLayerName_001
  6
Continuous
 62
    21
370
    50
100
AcDbCircle
 10
129.900366502782
 20
147.5919741512271
 30
0.0
 40
1.0
100
AcDbArc
 50
0.0
 51
45.94608528321772
  0
ARC
  5
165
330
1F
100
AcDbEntity
  8
NoLayerName_001
  6
Continuous
 62
    21
370
    50
100
AcDbCircle
 10
129.5729018348489
 20
146.5919741512271
 30
0.0
 40
2.0
100
AcDbArc
 50
22.8529686155252
 51
89.99999999999999
  0
ARC
  5
166
330
1F
100
AcDbEntity
  8
NoLayerName_001
  6
Continuous
 62
    21
370
    50
100
AcDbCircle
 10
151.0776947767673
 20
146.5919741512271
 30
0.0
 40
2.0
100
AcDbArc
 50
46.08777892136846
 51
89.99999999999999
  0
LINE
  5
167
330
1F
100
AcDbEntity
  8
NoLayerName_001
  6
Continuous
 62
    21
370
    50
100
AcDbLine
 10
55.5683680405679
 20
139.0919741512271
 30
0.0
 11
52.04440911805005
 21
141.4830836335518
 31
0.0
  0
LINE
  5
168
330
1F
100
AcDbEntity
  8
NoLayerName_001
  6
Continuous
 62
    21
370
    50
100
AcDbLine
 10
54.8863875252286
 20
141.4830836335518
 30
0.0
 11
56.44704769700864
 21
139.0919741512271
 31
0.0
  0
LINE
  5
169
330
1F
100
AcDbEntity
  8
NoLayerName_001
  6
Continuous
 62
    21
370
    50
100
AcDbLine
 10
79.29700267356282
 20
141.4830836335518
 30
0.0
 11
79.18809801935366
 21
139.0919741512271
 31
0.0
  0
LINE
  5
16A
330
1F
100
AcDbEntity
  8
NoLayerName_001
  6
Continuous
 62
    21
370
    50
100
AcDbLine
 10
96.3785434941384
 20
141.4830836335518
 30
0.0
 11
98.53255793312665
 21
139.0919741512271
 31
0.0
  0
LINE
  5
16B
330
1F
100
AcDbEntity
  8
NoLayerName_001
  6
Continuous
 62
    21
370
    50
100
AcDbLine
 10
133.8964052226625
 20
141.4830836335518
 30
0.0
 11
132.6681334557492
 21
139.0919741512271
 31
0.0
  0
LINE
  5
16C
330
1F
100
AcDbEntity
  8
NoLayerName_001
  6
Continuous
 62
    21
370
    50
100
AcDbLine
 10
159.3143121445458
 20
141.4385387612202
 30
0.0
 11
155.5556303875013
 21
139.0919741512271
 31
0.0
  0
LINE
  5
16D
330
1F
100
AcDbEntity
  8
NoLayerName_001
  6
Continuous
 62
    21
370
    50
100
AcDbLine
 10
132.6681334557492
 20
139.0919741512271
 30
0.0
 11
130.7910306740544
 21
143.5458946152539
 31
0.0
  0
LINE
  5
16E
330
1F
100
AcDbEntity
  8
NoLayerName_001
  6
DOTSX
 62
     7
370
    25
100
AcDbLine
 10
161.0683680405676
 20
231.9213434954424
 30
0.0
 11
160.5683680405683
 21
231.9213434954424
 31
0.0
  0
LINE
  5
16F
330
1F
100
AcDbEntity
  8
NoLayerName_001
  6
DOTSX
 62
     7
370
    25
100
AcDbLine
 10
165.5683680405677
 20
231.9213434954424
 30
0.0
 11
161.0683680405675
 21
231.9213434954424
 31
0.0
  0
LINE
  5
170
330
1F
100
AcDbEntity
  8
NoLayerName_001
  6
DOTSX
 62
     7
370
    25
100
AcDbLine
 10
160.5683680405678
 20
199.2084128158766
 30
0.0
 11
160.5683680405678
 21
236.0462351764702
 31
0.0
  0
LINE
  5
171
330
1F
100
AcDbEntity
  8
NoLayerName_001
  6
DOTSX
 62
     7
370
    25
100
AcDbLine
 10
161.0683680405676
 20
235.0107012705373
 30
0.0
 11
161.0683680405675
 21
206.5780514367371
 31
0.0
  0
ARC
  5
172
330
1F
100
AcDbEntity
  8
NoLayerName_001
  6
DOTSX
 62
     7
370
    25
100
AcDbCircle
 10
91.86443499823355
 20
260.9095477852382
 30
0.0
 40
1.0
100
AcDbArc
 50
94.40125432373269
 51
225.0
  0
LINE
  5
173
330
1F
100
AcDbEntity
  8
NoLayerName_001
  6
DOTSX
 62
     7
370
    25
100
AcDbLine
 10
129.0364054721034
 20
261.921343495442
 30
0.0
 11
90.10033060903257
 21
261.921343495442
 31
0.0
  0
LINE
  5
174
330
1F
100
AcDbEntity
  8
NoLayerName_001
  6
DOTSX
 62
     7
370
    25
100
AcDbLine
 10
62.56836804056803
 20
234.3893809269778
 30
0.0
 11
90.10033060903248
 21
261.9213434954423
 31
0.0
  0
ARC
  5
175
330
1F
100
AcDbEntity
  8
NoLayerName_001
  6
DOTSX
 62
     7
370
    25
100
AcDbCircle
 10
89.59940134956975
 20
254.6893000596638
 30
0.0
 40
5.0
100
AcDbArc
 50
225.0000000000001
 51
45.00000000000025
  0
LINE
  5
176
330
1F
100
AcDbEntity
  8
NoLayerName_001
  6
DOTSX
 62
     7
370
    25
100
AcDbLine
 10
91.15732821704688
 20
260.2024410040515
 30
0.0
 11
93.1349352555023
 21
258.2248339655961
 31
0.0
  0
CIRCLE
  5
177
330
1F
100
AcDbEntity
  8
NoLayerName_001
  6
DOTSX
 62
     7
370
    25
100
AcDbCircle
 10
89.59940134956975
 20
254.6893000596638
 30
0.0
 40
2.25
  0
CIRCLE
  5
178
330
1F
100
AcDbEntity
  8
NoLayerName_001
  6
DOTSX
 62
     7
370
    25
100
AcDbCircle
 10
89.59940134956975
 20
254.6893000596638
 30
0.0
 40
1.75
  0
LINE
  5
179
330
1F
100
AcDbEntity
  8
NoLayerName_001
  6
DOTSX
 62
     7
370
    25
100
AcDbLine
 10
93.44122379863012
 20
265.9213434954423
 30
0.0
 11
88.44347635954011
 21
265.9213434954423
 31
0.0
  0
ARC
  5
17A
330
1F
100
AcDbEntity
  8
NoLayerName_001
  6
DOTSX
 62
     7
370
    25
100
AcDbCircle
 10
93.44122379862989
 20
266.9213434954411
 30
0.0
 40
1.0
100
AcDbArc
 50
202.5000000000011
 51
270.0000000000002
  0
LINE
  5
17B
330
1F
100
AcDbEntity
  8
NoLayerName_001
  6
DOTSX
 62
     7
370
    25
100
AcDbLine
 10
90.70197734884442
 20
270.9213434954423
 30
0.0
 11
92.51734426611851
 21
266.5386600630757
 31
0.0
  0
LINE
  5
17C
330
1F
100
AcDbEntity
  8
NoLayerName_001
  6
DOTSX
 62
     7
370
    25
100
AcDbLine
 10
125.2812987201343
 20
265.9213434954423
 30
0.0
 11
93.44122379863016
 21
265.9213434954422
 31
0.0
  0
LINE
  5
17D
330
1F
100
AcDbEntity
  8
NoLayerName_001
  6
DOTSX
 62
     7
370
    25
100
AcDbLine
 10
89.47901026547339
 20
266.4213434954416
 30
0.0
 11
117.9116600992736
 21
266.4213434954415
 31
0.0
  0
ARC
  5
17E
330
1F
100
AcDbEntity
  8
NoLayerName_001
  6
DOTSX
 62
     7
370
    25
100
AcDbCircle
 10
84.2024284735167
 20
263.0945091717904
 30
0.0
 40
1.0
100
AcDbArc
 50
315.0000000000002
 51
22.49999999999931
  0
LINE
  5
17F
330
1F
100
AcDbEntity
  8
NoLayerName_001
  6
DOTSX
 62
     7
370
    25
100
AcDbLine
 10
83.31094108875419
 20
267.8598760365217
 30
0.0
 11
85.12630800602808
 21
263.4771926041556
 31
0.0
  0
LINE
  5
180
330
1F
100
AcDbEntity
  8
NoLayerName_001
  6
DOTSX
 62
     7
370
    25
100
AcDbLine
 10
87.35768992191385
 20
265.5426638390016
 30
0.0
 11
67.25277041733084
 21
245.4377443344187
 31
0.0
  0
LINE
  5
181
330
1F
100
AcDbEntity
  8
NoLayerName_001
  6
DOTSX
 62
     7
370
    25
100
AcDbLine
 10
62.39520236421907
 20
239.8730695001211
 30
0.0
 11
88.44347635954001
 21
265.9213434954421
 31
0.0
  0
ARC
  5
182
330
1F
100
AcDbEntity
  8
NoLayerName_001
  6
DOTSX
 62
     7
370
    25
100
AcDbCircle
 10
82.69831035547901
 20
253.1051096795154
 30
0.0
 40
1.0
100
AcDbArc
 50
45.00000000000008
 51
135.0000000000001
  0
LINE
  5
183
330
1F
100
AcDbEntity
  8
NoLayerName_001
  6
DOTSX
 62
     7
370
    25
100
AcDbLine
 10
83.4054171366659
 20
253.8122164607021
 30
0.0
 11
86.06386744363722
 21
251.1537661537308
 31
0.0
  0
LINE
  5
184
330
1F
100
AcDbEntity
  8
NoLayerName_001
  6
DOTSX
 62
     7
370
    25
100
AcDbLine
 10
128.042100626667
 20
260.2651337666296
 30
0.0
 11
126.0018008256337
 21
258.2248339655962
 31
0.0
  0
ARC
  5
185
330
1F
100
AcDbEntity
  8
NoLayerName_001
  6
DOTSX
 62
     7
370
    25
100
AcDbCircle
 10
127.2875220742213
 20
260.9213434954425
 30
0.0
 40
1.0
100
AcDbArc
 50
318.988558231088
 51
97.09532371220915
  0
LINE
  5
186
330
1F
100
AcDbEntity
  8
NoLayerName_001
  6
DOTSX
 62
     7
370
    25
100
AcDbLine
 10
135.7313189444704
 20
253.8122164607025
 30
0.0
 11
133.0728686374991
 21
251.1537661537312
 31
0.0
  0
ARC
  5
187
330
1F
100
AcDbEntity
  8
NoLayerName_001
  6
DOTSX
 62
     7
370
    25
100
AcDbCircle
 10
136.4384257256552
 20
253.1051096795163
 30
0.0
 40
1.0
100
AcDbArc
 50
44.99999999999997
 51
135.0
  0
LINE
  5
188
330
1F
100
AcDbEntity
  8
NoLayerName_001
  6
DOTSX
 62
     7
370
    25
100
AcDbLine
 10
129.0364054721035
 20
261.921343495442
 30
0.0
 11
156.5683680405682
 21
234.3893809269774
 31
0.0
  0
LINE
  5
189
330
1F
100
AcDbEntity
  8
NoLayerName_001
  6
DOTSX
 62
     7
370
    25
100
AcDbLine
 10
160.1896883841276
 20
237.1320216140969
 30
0.0
 11
140.0847688795447
 21
257.2369411186799
 31
0.0
  0
LINE
  5
18A
330
1F
100
AcDbEntity
  8
NoLayerName_001
  6
DOTSX
 62
     7
370
    25
100
AcDbLine
 10
134.5200940452468
 20
262.0945091717907
 30
0.0
 11
160.5683680405678
 21
236.0462351764697
 31
0.0
  0
CIRCLE
  5
18B
330
1F
100
AcDbEntity
  8
NoLayerName_001
  6
DOTSX
 62
     7
370
    25
100
AcDbCircle
 10
129.5373347315663
 20
254.689300059664
 30
0.0
 40
2.6
  0
ARC
  5
18C
330
1F
100
AcDbEntity
  8
NoLayerName_001
  6
DOTSX
 62
     7
370
    25
100
AcDbCircle
 10
129.5373347315659
 20
254.6893000596635
 30
0.0
 40
5.0
100
AcDbArc
 50
135.0000000000001
 51
315.0000000000001
  0
LINE
  5
18D
330
1F
100
AcDbEntity
  8
NoLayerName_005
  6
DOTSX
 62
     7
370
    25
100
AcDbLine
 10
131.5580604315661
 20
258.1893000596637
 30
0.0
 11
127.5166090315661
 21
258.1893000596637
 31
0.0
  0
LINE
  5
18E
330
1F
100
AcDbEntity
  8
NoLayerName_005
  6
DOTSX
 62
     7
370
    25
100
AcDbLine
 10
87.5786756495703
 20
258.1893000596637
 30
0.0
 11
85.5579495995703
 21
254.6893000596637
 31
0.0
  0
LINE
  5
18F
330
1F
100
AcDbEntity
  8
NoLayerName_005
  6
DOTSX
 62
     7
370
    25
100
AcDbLine
 10
87.5786756495703
 20
251.1893000596637
 30
0.0
 11
85.5579495995703
 21
254.6893000596637
 31
0.0
  0
LINE
  5
190
330
1F
100
AcDbEntity
  8
NoLayerName_005
  6
DOTSX
 62
     7
370
    25
100
AcDbLine
 10
87.57867564957036
 20
178.6533869312209
 30
0.0
 11
85.55794959957036
 21
175.1533869312209
 31
0.0
  0
LINE
  5
191
330
1F
100
AcDbEntity
  8
NoLayerName_005
  6
DOTSX
 62
     7
370
    25
100
AcDbLine
 10
87.57867564957036
 20
171.6533869312209
 30
0.0
 11
85.55794959957036
 21
175.1533869312209
 31
0.0
  0
LINE
  5
192
330
1F
100
AcDbEntity
  8
NoLayerName_005
  6
DOTSX
 62
     7
370
    25
100
AcDbLine
 10
91.62012704957039
 20
178.6533869312209
 30
0.0
 11
93.64085309957038
 21
175.1533869312209
 31
0.0
  0
LINE
  5
193
330
1F
100
AcDbEntity
  8
NoLayerName_005
  6
DOTSX
 62
     7
370
    25
100
AcDbLine
 10
91.62012704957039
 20
171.6533869312209
 30
0.0
 11
93.64085309957038
 21
175.1533869312209
 31
0.0
  0
LINE
  5
194
330
1F
100
AcDbEntity
  8
NoLayerName_005
  6
DOTSX
 62
     7
370
    25
100
AcDbLine
 10
91.62012704957039
 20
171.6533869312209
 30
0.0
 11
87.57867564957039
 21
171.6533869312209
 31
0.0
  0
LINE
  5
195
330
1F
100
AcDbEntity
  8
NoLayerName_005
  6
DOTSX
 62
     7
370
    25
100
AcDbLine
 10
131.5580604315663
 20
171.6533869312206
 30
0.0
 11
127.5166090315663
 21
171.6533869312206
 31
0.0
  0
LINE
  5
196
330
1F
100
AcDbEntity
  8
NoLayerName_005
  6
DOTSX
 62
     7
370
    25
100
AcDbLine
 10
131.5580604315663
 20
178.6533869312206
 30
0.0
 11
127.5166090315663
 21
178.6533869312206
 31
0.0
  0
CIRCLE
  5
197
330
1F
100
AcDbEntity
  8
NoLayerName_005
  6
DOTSX
 62
     7
370
    25
100
AcDbCircle
 10
89.59940134957043
 20
175.1533869312209
 30
0.0
 40
1.533338000000001
  0
LINE
  5
198
330
1F
100
AcDbEntity
  8
NoLayerName_005
  6
DOTSX
 62
     7
370
    25
100
AcDbLine
 10
91.62012704957039
 20
178.6533869312209
 30
0.0
 11
87.57867564957039
 21
178.6533869312209
 31
0.0
  0
LINE
  5
199
330
1F
100
AcDbEntity
  8
NoLayerName_005
  6
DOTSX
 62
     7
370
    25
100
AcDbLine
 10
127.5166090315663
 20
171.6533869312206
 30
0.0
 11
125.4958829815663
 21
175.1533869312206
 31
0.0
  0
LINE
  5
19A
330
1F
100
AcDbEntity
  8
NoLayerName_005
  6
DOTSX
 62
     7
370
    25
100
AcDbLine
 10
131.5580604315663
 20
171.6533869312206
 30
0.0
 11
133.5787864815663
 21
175.1533869312206
 31
0.0
  0
LINE
  5
19B
330
1F
100
AcDbEntity
  8
NoLayerName_005
  6
DOTSX
 62
     7
370
    25
100
AcDbLine
 10
131.5580604315663
 20
178.6533869312206
 30
0.0
 11
133.5787864815663
 21
175.1533869312206
 31
0.0
  0
LINE
  5
19C
330
1F
100
AcDbEntity
  8
NoLayerName_005
  6
DOTSX
 62
     7
370
    25
100
AcDbLine
 10
127.5166090315663
 20
178.6533869312206
 30
0.0
 11
125.4958829815663
 21
175.1533869312206
 31
0.0
  0
LINE
  5
19D
330
1F
100
AcDbEntity
  8
NoLayerName_005
  6
DOTSX
 62
     7
370
    25
100
AcDbLine
 10
91.62012704957033
 20
258.1893000596637
 30
0.0
 11
87.57867564957033
 21
258.1893000596637
 31
0.0
  0
LINE
  5
19E
330
1F
100
AcDbEntity
  8
NoLayerName_005
  6
DOTSX
 62
     7
370
    25
100
AcDbLine
 10
91.62012704957033
 20
258.1893000596637
 30
0.0
 11
93.64085309957032
 21
254.6893000596637
 31
0.0
  0
LINE
  5
19F
330
1F
100
AcDbEntity
  8
NoLayerName_005
  6
DOTSX
 62
     7
370
    25
100
AcDbLine
 10
91.62012704957033
 20
251.1893000596637
 30
0.0
 11
93.64085309957032
 21
254.6893000596637
 31
0.0
  0
LINE
  5
1A0
330
1F
100
AcDbEntity
  8
NoLayerName_005
  6
DOTSX
 62
     7
370
    25
100
AcDbLine
 10
91.62012704957033
 20
251.1893000596637
 30
0.0
 11
87.57867564957033
 21
251.1893000596637
 31
0.0
  0
LINE
  5
1A1
330
1F
100
AcDbEntity
  8
NoLayerName_005
  6
DOTSX
 62
     7
370
    25
100
AcDbLine
 10
131.5580604315661
 20
258.1893000596637
 30
0.0
 11
133.5787864815661
 21
254.6893000596637
 31
0.0
  0
LINE
  5
1A2
330
1F
100
AcDbEntity
  8
NoLayerName_005
  6
DOTSX
 62
     7
370
    25
100
AcDbLine
 10
131.5580604315661
 20
251.1893000596637
 30
0.0
 11
133.5787864815661
 21
254.6893000596637
 31
0.0
  0
LINE
  5
1A3
330
1F
100
AcDbEntity
  8
NoLayerName_005
  6
DOTSX
 62
     7
370
    25
100
AcDbLine
 10
131.5580604315661
 20
251.1893000596637
 30
0.0
 11
127.5166090315661
 21
251.1893000596637
 31
0.0
  0
LINE
  5
1A4
330
1F
100
AcDbEntity
  8
NoLayerName_005
  6
DOTSX
 62
     7
370
    25
100
AcDbLine
 10
127.5166090315661
 20
251.1893000596637
 30
0.0
 11
125.4958829815661
 21
254.6893000596637
 31
0.0
  0
LINE
  5
1A5
330
1F
100
AcDbEntity
  8
NoLayerName_005
  6
DOTSX
 62
     7
370
    25
100
AcDbLine
 10
127.5166090315661
 20
258.1893000596637
 30
0.0
 11
125.4958829815661
 21
254.6893000596637
 31
0.0
  0
CIRCLE
  5
1A6
330
1F
100
AcDbEntity
  8
NoLayerName_005
  6
DOTSX
 62
     7
370
    25
100
AcDbCircle
 10
129.5373347315661
 20
254.6893000596637
 30
0.0
 40
1.533338000000001
  0
LINE
  5
1A7
330
1F
100
AcDbEntity
  8
NoLayerName_001
  6
DOTSX
 62
     7
370
    25
100
AcDbLine
 10
87.09994504924076
 20
190.7711371136576
 30
0.0
 11
87.1592517552897
 21
191.934521024451
 31
0.0
  0
LINE
  5
1A8
330
1F
100
AcDbEntity
  8
NoLayerName_001
  6
DOTSX
 62
     7
370
    25
100
AcDbLine
 10
85.25218598421819
 20
190.0057702489274
 30
0.0
 11
84.38761315775584
 21
190.7864707273557
 31
0.0
  0
CIRCLE
  5
1A9
330
1F
100
AcDbEntity
  8
NoLayerName_003
  6
Continuous
 62
     3
370
    50
100
AcDbCircle
 10
80.92810253271821
 20
203.0581570921245
 30
0.0
 40
15.6
  0
LINE
  5
1AA
330
1F
100
AcDbEntity
  8
NoLayerName_003
  6
DOTSX
 62
     3
370
    25
100
AcDbLine
 10
80.7372370203276
 20
188.4864869628574
 30
0.0
 11
81.02334032528395
 21
189.1772014419228
 31
0.0
  0
LINE
  5
1AB
330
1F
100
AcDbEntity
  8
NoLayerName_003
  6
DOTSX
 62
     3
370
    25
100
AcDbLine
 10
94.80905818291983
 20
203.1533948846907
 30
0.0
 11
95.4997726619856
 21
202.8672915797342
 31
0.0
  0
LINE
  5
1AC
330
1F
100
AcDbEntity
  8
NoLayerName_003
  6
DOTSX
 62
     3
370
    25
100
AcDbLine
 10
91.36679159244252
 20
192.8893926286122
 30
0.0
 11
90.67607711337706
 21
193.1754959335686
 31
0.0
  0
LINE
  5
1AD
330
1F
100
AcDbEntity
  8
NoLayerName_003
  6
DOTSX
 62
     3
370
    25
100
AcDbLine
 10
90.81076369127422
 20
212.8061316727832
 30
0.0
 11
91.09686699623062
 21
213.4968461518487
 31
0.0
  0
ARC
  5
1AE
330
1F
100
AcDbEntity
  8
NoLayerName_003
  6
DOTSX
 62
     3
370
    25
100
AcDbCircle
 10
80.92810253271821
 20
203.0581570921245
 30
0.0
 40
14.7
100
AcDbArc
 50
46.48448800565551
 51
88.51551199434357
  0
ARC
  5
1AF
330
1F
100
AcDbEntity
  8
NoLayerName_003
  6
DOTSX
 62
     3
370
    25
100
AcDbCircle
 10
90.9120910897284
 20
213.5733828383217
 30
0.0
 40
0.2
100
AcDbArc
 50
337.4999999999999
 51
46.48448800565543
  0
ARC
  5
1B0
330
1F
100
AcDbEntity
  8
NoLayerName_003
  6
DOTSX
 62
     3
370
    25
100
AcDbCircle
 10
80.92810253271821
 20
203.0581570921245
 30
0.0
 40
14.7
100
AcDbArc
 50
136.4844880056555
 51
178.5155119943436
  0
ARC
  5
1B1
330
1F
100
AcDbEntity
  8
NoLayerName_003
  6
DOTSX
 62
     3
370
    25
100
AcDbCircle
 10
66.43296908992409
 20
203.4337985110174
 30
0.0
 40
0.2
100
AcDbArc
 50
178.5155119943436
 51
247.5
  0
ARC
  5
1B2
330
1F
100
AcDbEntity
  8
NoLayerName_003
  6
DOTSX
 62
     3
370
    25
100
AcDbCircle
 10
80.92810253271821
 20
203.0581570921245
 30
0.0
 40
14.7
100
AcDbArc
 50
226.4844880056555
 51
268.5155119943436
  0
ARC
  5
1B3
330
1F
100
AcDbEntity
  8
NoLayerName_003
  6
DOTSX
 62
     3
370
    25
100
AcDbCircle
 10
80.55246111382542
 20
188.5630236493303
 30
0.0
 40
0.2
100
AcDbArc
 50
268.5155119943436
 51
337.4999999999999
  0
ARC
  5
1B4
330
1F
100
AcDbEntity
  8
NoLayerName_003
  6
DOTSX
 62
     3
370
    25
100
AcDbCircle
 10
91.44332827891557
 20
193.0741685351143
 30
0.0
 40
0.2
100
AcDbArc
 50
247.5
 51
316.4844880056554
  0
ARC
  5
1B5
330
1F
100
AcDbEntity
  8
NoLayerName_003
  6
DOTSX
 62
     3
370
    25
100
AcDbCircle
 10
80.92810253271821
 20
203.0581570921245
 30
0.0
 40
14.7
100
AcDbArc
 50
316.4844880056555
 51
358.5155119943436
  0
ARC
  5
1B6
330
1F
100
AcDbEntity
  8
NoLayerName_003
  6
DOTSX
 62
     3
370
    25
100
AcDbCircle
 10
95.42323597551251
 20
202.6825156732317
 30
0.0
 40
0.2
100
AcDbArc
 50
358.5155119943436
 51
67.49999999999997
  0
LINE
  5
1B7
330
1F
100
AcDbEntity
  8
NoLayerName_003
  6
DOTSX
 62
     7
370
    25
100
AcDbLine
 10
67.65652633329096
 20
197.8856078963414
 30
0.0
 11
66.58825260649091
 21
197.443114430374
 31
0.0
  0
LINE
  5
1B8
330
1F
100
AcDbEntity
  8
NoLayerName_003
  6
DOTSX
 62
     7
370
    25
100
AcDbLine
 10
68.35554952506443
 20
196.348533945319
 30
0.0
 11
67.3341584551956
 21
195.821812405946
 31
0.0
  0
LINE
  5
1B9
330
1F
100
AcDbEntity
  8
NoLayerName_003
  6
DOTSX
 62
     7
370
    25
100
AcDbLine
 10
86.10065172850129
 20
189.7865808926972
 30
0.0
 11
86.54314519446874
 21
188.7183071658971
 31
0.0
  0
LINE
  5
1BA
330
1F
100
AcDbEntity
  8
NoLayerName_003
  6
DOTSX
 62
     7
370
    25
100
AcDbLine
 10
87.63772567952377
 20
190.4856040844708
 30
0.0
 11
88.16444721889683
 21
189.4642130146018
 31
0.0
  0
LINE
  5
1BB
330
1F
100
AcDbEntity
  8
NoLayerName_003
  6
DOTSX
 62
     7
370
    25
100
AcDbLine
 10
94.19967873214547
 20
208.2307062879076
 30
0.0
 11
95.26795245894552
 21
208.673199753875
 31
0.0
  0
LINE
  5
1BC
330
1F
100
AcDbEntity
  8
NoLayerName_003
  6
DOTSX
 62
     7
370
    25
100
AcDbLine
 10
93.500655540372
 20
209.76778023893
 30
0.0
 11
94.52204661024112
 21
210.2945017783031
 31
0.0
  0
ARC
  5
1BD
330
1F
100
AcDbEntity
  8
NoLayerName_003
  6
DOTSX
 62
     7
370
    25
100
AcDbCircle
 10
80.92810253271821
 20
203.0581570921245
 30
0.0
 40
15.4
100
AcDbArc
 50
21.38377784414154
 51
28.02731948911318
  0
ARC
  5
1BE
330
1F
100
AcDbEntity
  8
NoLayerName_003
  6
DOTSX
 62
     7
370
    25
100
AcDbCircle
 10
80.92810253271821
 20
203.0581570921245
 30
0.0
 40
15.4
100
AcDbArc
 50
291.3837778441415
 51
298.027319489112
  0
ARC
  5
1BF
330
1F
100
AcDbEntity
  8
NoLayerName_003
  6
DOTSX
 62
     3
370
    25
100
AcDbCircle
 10
80.92810253271821
 20
203.0581570921245
 30
0.0
 40
13.3
100
AcDbArc
 50
184.086759631728
 51
220.9132403682721
  0
LINE
  5
1C0
330
1F
100
AcDbEntity
  8
NoLayerName_003
  6
DOTSX
 62
     3
370
    25
100
AcDbLine
 10
67.04714688251653
 20
202.9629192995587
 30
0.0
 11
66.35643240345111
 21
203.2490226045151
 31
0.0
  0
ARC
  5
1C1
330
1F
100
AcDbEntity
  8
NoLayerName_003
  6
DOTSX
 62
     3
370
    25
100
AcDbCircle
 10
66.66446345015139
 20
202.0390397670475
 30
0.0
 40
1.0
100
AcDbArc
 50
4.086759631727912
 51
67.49999999999997
  0
ARC
  5
1C2
330
1F
100
AcDbEntity
  8
NoLayerName_003
  6
DOTSX
 62
     3
370
    25
100
AcDbCircle
 10
80.92810253271821
 20
203.0581570921245
 30
0.0
 40
13.3
100
AcDbArc
 50
4.086759631729947
 51
40.91324036827046
  0
ARC
  5
1C3
330
1F
100
AcDbEntity
  8
NoLayerName_003
  6
DOTSX
 62
     3
370
    25
100
AcDbCircle
 10
91.73464322378555
 20
212.423448240418
 30
0.0
 40
1.0
100
AcDbArc
 50
157.5
 51
220.9132403682705
  0
ARC
  5
1C4
330
1F
100
AcDbEntity
  8
NoLayerName_003
  6
DOTSX
 62
     3
370
    25
100
AcDbCircle
 10
95.19174161528507
 20
204.0772744172019
 30
0.0
 40
1.0
100
AcDbArc
 50
184.0867596317299
 51
247.5
  0
ARC
  5
1C5
330
1F
100
AcDbEntity
  8
NoLayerName_003
  6
DOTSX
 62
     3
370
    25
100
AcDbCircle
 10
90.29339368101202
 20
192.2516164010573
 30
0.0
 40
1.0
100
AcDbArc
 50
67.50000000000003
 51
130.9132403682719
  0
ARC
  5
1C6
330
1F
100
AcDbEntity
  8
NoLayerName_003
  6
DOTSX
 62
     3
370
    25
100
AcDbCircle
 10
80.92810253271821
 20
203.0581570921245
 30
0.0
 40
13.3
100
AcDbArc
 50
274.0867596317281
 51
310.9132403682719
  0
ARC
  5
1C7
330
1F
100
AcDbEntity
  8
NoLayerName_003
  6
DOTSX
 62
     3
370
    25
100
AcDbCircle
 10
81.9472198577953
 20
188.7945180095576
 30
0.0
 40
1.0
100
AcDbArc
 50
94.08675963172811
 51
157.5
  0
ARC
  5
1C8
330
1F
100
AcDbEntity
  8
NoLayerName_003
  6
DOTSX
 62
     3
370
    25
100
AcDbCircle
 10
70.94411397570832
 20
192.5429313459271
 30
0.0
 40
0.2
100
AcDbArc
 50
157.5
 51
226.4844880056564
  0
LINE
  5
1C9
330
1F
100
AcDbEntity
  8
NoLayerName_003
  6
DOTSX
 62
     3
370
    25
100
AcDbLine
 10
71.04544137416241
 20
193.3101825114656
 30
0.0
 11
70.75933806920605
 21
192.6194680324002
 31
0.0
  0
ARC
  5
1CA
330
1F
100
AcDbEntity
  8
NoLayerName_003
  6
DOTSX
 62
     3
370
    25
100
AcDbCircle
 10
70.12156184165116
 20
193.6928659438306
 30
0.0
 40
1.0
100
AcDbArc
 50
337.5000000000001
 51
40.91324036827208
  0
LINE
  5
1CB
330
1F
100
AcDbEntity
  8
NoLayerName_003
  6
DOTSX
 62
     3
370
    25
100
AcDbLine
 10
80.83286474015257
 20
216.9391127423262
 30
0.0
 11
81.11896804510903
 21
217.6298272213918
 31
0.0
  0
LINE
  5
1CC
330
1F
100
AcDbEntity
  8
NoLayerName_003
  6
DOTSX
 62
     3
370
    25
100
AcDbLine
 10
71.18012795205925
 20
212.9408182506803
 30
0.0
 11
70.48941347299392
 21
213.2269215556366
 31
0.0
  0
ARC
  5
1CD
330
1F
100
AcDbEntity
  8
NoLayerName_003
  6
DOTSX
 62
     3
370
    25
100
AcDbCircle
 10
81.30374395161127
 20
217.5532905349187
 30
0.0
 40
0.2
100
AcDbArc
 50
88.51551199434357
 51
157.5
  0
ARC
  5
1CE
330
1F
100
AcDbEntity
  8
NoLayerName_003
  6
DOTSX
 62
     3
370
    25
100
AcDbCircle
 10
70.41287678652107
 20
213.0421456491347
 30
0.0
 40
0.2
100
AcDbArc
 50
67.5
 51
136.4844880056555
  0
LINE
  5
1CF
330
1F
100
AcDbEntity
  8
NoLayerName_003
  6
DOTSX
 62
     7
370
    25
100
AcDbLine
 10
75.75555333693514
 20
216.3297332915517
 30
0.0
 11
75.3130598709677
 21
217.3980070183518
 31
0.0
  0
LINE
  5
1D0
330
1F
100
AcDbEntity
  8
NoLayerName_003
  6
DOTSX
 62
     7
370
    25
100
AcDbLine
 10
74.21847938591287
 20
215.6307100997782
 30
0.0
 11
73.69175784653983
 21
216.6521011696472
 31
0.0
  0
ARC
  5
1D1
330
1F
100
AcDbEntity
  8
NoLayerName_003
  6
DOTSX
 62
     7
370
    25
100
AcDbCircle
 10
80.92810253271821
 20
203.0581570921245
 30
0.0
 40
15.4
100
AcDbArc
 50
111.3837778441416
 51
118.0273194891118
  0
ARC
  5
1D2
330
1F
100
AcDbEntity
  8
NoLayerName_003
  6
DOTSX
 62
     7
370
    25
100
AcDbCircle
 10
80.92810253271821
 20
203.0581570921245
 30
0.0
 40
15.4
100
AcDbArc
 50
201.3837778441415
 51
208.0273194891119
  0
ARC
  5
1D3
330
1F
100
AcDbEntity
  8
NoLayerName_003
  6
DOTSX
 62
     3
370
    25
100
AcDbCircle
 10
80.92810253271821
 20
203.0581570921245
 30
0.0
 40
13.3
100
AcDbArc
 50
94.08675963172809
 51
130.9132403682719
  0
ARC
  5
1D4
330
1F
100
AcDbEntity
  8
NoLayerName_003
  6
DOTSX
 62
     3
370
    25
100
AcDbCircle
 10
71.5628113844244
 20
213.8646977831917
 30
0.0
 40
1.0
100
AcDbArc
 50
247.5
 51
310.9132403682719
  0
ARC
  5
1D5
330
1F
100
AcDbEntity
  8
NoLayerName_003
  6
DOTSX
 62
     3
370
    25
100
AcDbCircle
 10
79.90898520764112
 20
217.3217961746913
 30
0.0
 40
1.0
100
AcDbArc
 50
274.0867596317281
 51
337.5000000000001
  0
ARC
  5
1D6
330
1F
100
AcDbEntity
  8
NoLayerName_003
  6
DOTSX
 62
     8
370
    25
100
AcDbCircle
 10
80.92810253271821
 20
203.0581570921245
 30
0.0
 40
14.5
100
AcDbArc
 50
46.48448800565551
 51
88.51551199434357
  0
LINE
  5
1D7
330
1F
100
AcDbEntity
  8
NoLayerName_003
  6
DOTSX
 62
     8
370
    25
100
AcDbLine
 10
81.0176406466548
 20
216.8625760558532
 30
0.0
 11
81.30374395161125
 21
217.5532905349188
 31
0.0
  0
ARC
  5
1D8
330
1F
100
AcDbEntity
  8
NoLayerName_003
  6
DOTSX
 62
     8
370
    25
100
AcDbCircle
 10
79.90898520764112
 20
217.3217961746913
 30
0.0
 40
1.2
100
AcDbArc
 50
274.0867707635746
 51
337.4999999999962
  0
ARC
  5
1D9
330
1F
100
AcDbEntity
  8
NoLayerName_003
  6
DOTSX
 62
     8
370
    25
100
AcDbCircle
 10
80.92810253271821
 20
203.0581570921245
 30
0.0
 40
13.1
100
AcDbArc
 50
94.08675963172809
 51
130.9132403682717
  0
ARC
  5
1DA
330
1F
100
AcDbEntity
  8
NoLayerName_003
  6
DOTSX
 62
     8
370
    25
100
AcDbCircle
 10
90.29339368101202
 20
192.2516164010573
 30
0.0
 40
1.2
100
AcDbArc
 50
67.49999999999756
 51
130.9132403682719
  0
LINE
  5
1DB
330
1F
100
AcDbEntity
  8
NoLayerName_003
  6
DOTSX
 62
     8
370
    25
100
AcDbLine
 10
91.44332827891549
 20
193.0741685351145
 30
0.0
 11
90.75261379985004
 21
193.3602718400709
 31
0.0
  0
ARC
  5
1DC
330
1F
100
AcDbEntity
  8
NoLayerName_003
  6
DOTSX
 62
     8
370
    25
100
AcDbCircle
 10
80.92810253271821
 20
203.0581570921245
 30
0.0
 40
14.5
100
AcDbArc
 50
316.4844880056555
 51
358.5155119943436
  0
LINE
  5
1DD
330
1F
100
AcDbEntity
  8
NoLayerName_003
  6
DOTSX
 62
     8
370
    25
100
AcDbLine
 10
94.73252149644682
 20
202.9686189781885
 30
0.0
 11
95.4232359755126
 21
202.682515673232
 31
0.0
  0
ARC
  5
1DE
330
1F
100
AcDbEntity
  8
NoLayerName_003
  6
DOTSX
 62
     8
370
    25
100
AcDbCircle
 10
95.19174161528507
 20
204.0772744172019
 30
0.0
 40
1.2
100
AcDbArc
 50
184.0867596317299
 51
247.4999999999986
  0
ARC
  5
1DF
330
1F
100
AcDbEntity
  8
NoLayerName_003
  6
DOTSX
 62
     8
370
    25
100
AcDbCircle
 10
80.92810253271821
 20
203.0581570921245
 30
0.0
 40
13.1
100
AcDbArc
 50
4.086759631729947
 51
40.91324036827065
  0
ARC
  5
1E0
330
1F
100
AcDbEntity
  8
NoLayerName_003
  6
DOTSX
 62
     8
370
    25
100
AcDbCircle
 10
91.73464322378555
 20
212.423448240418
 30
0.0
 40
1.2
100
AcDbArc
 50
157.5000110661712
 51
220.9132403682704
  0
LINE
  5
1E1
330
1F
100
AcDbEntity
  8
NoLayerName_003
  6
DOTSX
 62
     8
370
    25
100
AcDbLine
 10
90.625987784772
 20
212.8826683592562
 30
0.0
 11
90.91209108972839
 21
213.5733828383217
 31
0.0
  0
ARC
  5
1E2
330
1F
100
AcDbEntity
  8
NoLayerName_003
  6
DOTSX
 62
     8
370
    25
100
AcDbCircle
 10
80.92810253271821
 20
203.0581570921245
 30
0.0
 40
14.5
100
AcDbArc
 50
136.4844880056555
 51
178.5155119943436
  0
LINE
  5
1E3
330
1F
100
AcDbEntity
  8
NoLayerName_003
  6
DOTSX
 62
     8
370
    25
100
AcDbLine
 10
67.12368356898949
 20
203.1476952060611
 30
0.0
 11
66.43296908992407
 21
203.4337985110174
 31
0.0
  0
ARC
  5
1E4
330
1F
100
AcDbEntity
  8
NoLayerName_003
  6
DOTSX
 62
     8
370
    25
100
AcDbCircle
 10
66.66446345015139
 20
202.0390397670475
 30
0.0
 40
1.2
100
AcDbArc
 50
4.086760839146161
 51
67.50000000000051
  0
ARC
  5
1E5
330
1F
100
AcDbEntity
  8
NoLayerName_003
  6
DOTSX
 62
     8
370
    25
100
AcDbCircle
 10
80.92810253271821
 20
203.0581570921245
 30
0.0
 40
13.1
100
AcDbArc
 50
184.0867564371995
 51
220.9132403682723
  0
ARC
  5
1E6
330
1F
100
AcDbEntity
  8
NoLayerName_003
  6
DOTSX
 62
     8
370
    25
100
AcDbCircle
 10
70.12156184165116
 20
193.6928659438306
 30
0.0
 40
1.2
100
AcDbArc
 50
337.4999999999992
 51
40.91323951449843
  0
LINE
  5
1E7
330
1F
100
AcDbEntity
  8
NoLayerName_003
  6
DOTSX
 62
     8
370
    25
100
AcDbLine
 10
71.23021728066468
 20
193.2336458249925
 30
0.0
 11
70.9441139757083
 21
192.5429313459271
 31
0.0
  0
ARC
  5
1E8
330
1F
100
AcDbEntity
  8
NoLayerName_003
  6
DOTSX
 62
     8
370
    25
100
AcDbCircle
 10
80.92810253271821
 20
203.0581570921245
 30
0.0
 40
14.5
100
AcDbArc
 50
226.4844880056555
 51
268.5155119943436
  0
ARC
  5
1E9
330
1F
100
AcDbEntity
  8
NoLayerName_003
  6
DOTSX
 62
     8
370
    25
100
AcDbCircle
 10
71.5628113844244
 20
213.8646977831917
 30
0.0
 40
1.2
100
AcDbArc
 50
247.5
 51
310.9132403682714
  0
LINE
  5
1EA
330
1F
100
AcDbEntity
  8
NoLayerName_003
  6
DOTSX
 62
     8
370
    25
100
AcDbLine
 10
80.83856441878173
 20
189.2537381283958
 30
0.0
 11
80.55246111382539
 21
188.5630236493304
 31
0.0
  0
LINE
  5
1EB
330
1F
100
AcDbEntity
  8
NoLayerName_003
  6
DOTSX
 62
     8
370
    25
100
AcDbLine
 10
71.1035912655863
 20
212.756042344178
 30
0.0
 11
70.41287678652091
 21
213.0421456491344
 31
0.0
  0
ARC
  5
1EC
330
1F
100
AcDbEntity
  8
NoLayerName_003
  6
DOTSX
 62
     8
370
    25
100
AcDbCircle
 10
81.9472198577953
 20
188.7945180095576
 30
0.0
 40
1.2
100
AcDbArc
 50
94.0867596317296
 51
157.499999999999
  0
ARC
  5
1ED
330
1F
100
AcDbEntity
  8
NoLayerName_003
  6
DOTSX
 62
     7
370
    25
100
AcDbCircle
 10
67.27384290092587
 20
198.8094874288527
 30
0.0
 40
1.0
100
AcDbArc
 50
292.5000000000001
 51
17.28409142954608
  0
ARC
  5
1EE
330
1F
100
AcDbEntity
  8
NoLayerName_003
  6
DOTSX
 62
     7
370
    25
100
AcDbCircle
 10
68.81388455502349
 20
195.4597544449296
 30
0.0
 40
1.0
100
AcDbArc
 50
32.09717617793611
 51
117.2797221100646
  0
ARC
  5
1EF
330
1F
100
AcDbEntity
  8
NoLayerName_003
  6
DOTSX
 62
     7
370
    25
100
AcDbCircle
 10
85.17677219599001
 20
189.4038974603321
 30
0.0
 40
1.0
100
AcDbArc
 50
22.50000000000002
 51
107.2840914295461
  0
ARC
  5
1F0
330
1F
100
AcDbEntity
  8
NoLayerName_003
  6
DOTSX
 62
     7
370
    25
100
AcDbCircle
 10
88.52650517991314
 20
190.9439391144298
 30
0.0
 40
1.0
100
AcDbArc
 50
122.0971761779364
 51
207.2797221100646
  0
ARC
  5
1F1
330
1F
100
AcDbEntity
  8
NoLayerName_003
  6
DOTSX
 62
     7
370
    25
100
AcDbCircle
 10
94.58236216451056
 20
207.3068267553963
 30
0.0
 40
1.0
100
AcDbArc
 50
112.5
 51
197.2840914295461
  0
ARC
  5
1F2
330
1F
100
AcDbEntity
  8
NoLayerName_003
  6
DOTSX
 62
     7
370
    25
100
AcDbCircle
 10
93.04232051041296
 20
210.6565597393193
 30
0.0
 40
1.0
100
AcDbArc
 50
212.0971761779359
 51
297.2797221100646
  0
ARC
  5
1F3
330
1F
100
AcDbEntity
  8
NoLayerName_003
  6
DOTSX
 62
     7
370
    25
100
AcDbCircle
 10
73.32969988552348
 20
215.1723750698192
 30
0.0
 40
1.0
100
AcDbArc
 50
302.0971761779355
 51
27.27972211006455
  0
ARC
  5
1F4
330
1F
100
AcDbEntity
  8
NoLayerName_003
  6
DOTSX
 62
     7
370
    25
100
AcDbCircle
 10
76.67943286944642
 20
216.7124167239168
 30
0.0
 40
1.0
100
AcDbArc
 50
202.5
 51
287.284091429546
  0
ARC
  5
1F5
330
1F
100
AcDbEntity
  8
NoLayerName_003
  6
DOTSX
 62
     8
370
    25
100
AcDbCircle
 10
80.92810253271821
 20
203.0581570921245
 30
0.0
 40
13.37965
100
AcDbArc
 50
141.3632594849701
 51
173.6367405150301
  0
LINE
  5
1F6
330
1F
100
AcDbEntity
  8
NoLayerName_003
  6
DOTSX
 62
     8
370
    25
100
AcDbLine
 10
71.05888877756226
 20
211.5619006193917
 30
0.0
 11
71.76399804263055
 21
211.2698347988455
 31
0.0
  0
LINE
  5
1F7
330
1F
100
AcDbEntity
  8
NoLayerName_003
  6
DOTSX
 62
     8
370
    25
100
AcDbLine
 10
81.60156996982039
 20
215.3446905119085
 30
0.0
 11
81.8936357903666
 21
216.0497997769768
 31
0.0
  0
ARC
  5
1F8
330
1F
100
AcDbEntity
  8
NoLayerName_003
  6
DOTSX
 62
     8
370
    25
100
AcDbCircle
 10
80.92810253271821
 20
203.0581570921245
 30
0.0
 40
11.9796679388638
100
AcDbArc
 50
89.0288024294172
 51
135.9711975705828
  0
ARC
  5
1F9
330
1F
100
AcDbEntity
  8
NoLayerName_003
  6
DOTSX
 62
     8
370
    25
100
AcDbCircle
 10
80.92810253271821
 20
203.0581570921245
 30
0.0
 40
13.37965
100
AcDbArc
 50
51.36325948496994
 51
83.63674051502993
  0
LINE
  5
1FA
330
1F
100
AcDbEntity
  8
NoLayerName_003
  6
DOTSX
 62
     8
370
    25
100
AcDbLine
 10
89.43184605998555
 20
212.9273708472804
 30
0.0
 11
89.13978023943935
 21
212.2222615822121
 31
0.0
  0
LINE
  5
1FB
330
1F
100
AcDbEntity
  8
NoLayerName_003
  6
DOTSX
 62
     8
370
    25
100
AcDbLine
 10
93.2146359525022
 20
202.3846896550222
 30
0.0
 11
93.9197452175705
 21
202.092623834476
 31
0.0
  0
ARC
  5
1FC
330
1F
100
AcDbEntity
  8
NoLayerName_003
  6
DOTSX
 62
     8
370
    25
100
AcDbCircle
 10
80.92810253271821
 20
203.0581570921245
 30
0.0
 40
11.9796679388638
100
AcDbArc
 50
359.0288024294172
 51
45.97119757058277
  0
ARC
  5
1FD
330
1F
100
AcDbEntity
  8
NoLayerName_003
  6
DOTSX
 62
     8
370
    25
100
AcDbCircle
 10
80.92810253271821
 20
203.0581570921245
 30
0.0
 40
13.37965
100
AcDbArc
 50
321.3632594849701
 51
353.6367405150301
  0
LINE
  5
1FE
330
1F
100
AcDbEntity
  8
NoLayerName_003
  6
DOTSX
 62
     8
370
    25
100
AcDbLine
 10
90.79731628787417
 20
194.5544135648572
 30
0.0
 11
90.09220702280588
 21
194.8464793854034
 31
0.0
  0
LINE
  5
1FF
330
1F
100
AcDbEntity
  8
NoLayerName_003
  6
DOTSX
 62
     8
370
    25
100
AcDbLine
 10
80.25463509561604
 20
190.7716236723405
 30
0.0
 11
79.96256927506982
 21
190.0665144072722
 31
0.0
  0
ARC
  5
200
330
1F
100
AcDbEntity
  8
NoLayerName_003
  6
DOTSX
 62
     8
370
    25
100
AcDbCircle
 10
80.92810253271821
 20
203.0581570921245
 30
0.0
 40
11.9796679388638
100
AcDbArc
 50
269.0288024294172
 51
315.9711975705828
  0
ARC
  5
201
330
1F
100
AcDbEntity
  8
NoLayerName_003
  6
DOTSX
 62
     8
370
    25
100
AcDbCircle
 10
80.92810253271821
 20
203.0581570921245
 30
0.0
 40
13.37965
100
AcDbArc
 50
231.3632594849699
 51
263.6367405150299
  0
LINE
  5
202
330
1F
100
AcDbEntity
  8
NoLayerName_003
  6
DOTSX
 62
     8
370
    25
100
AcDbLine
 10
72.42435900545088
 20
193.1889433369685
 30
0.0
 11
72.71642482599708
 21
193.8940526020368
 31
0.0
  0
LINE
  5
203
330
1F
100
AcDbEntity
  8
NoLayerName_003
  6
DOTSX
 62
     8
370
    25
100
AcDbLine
 10
68.64156911293422
 20
203.7316245292267
 30
0.0
 11
67.93645984786593
 21
204.0236903497729
 31
0.0
  0
ARC
  5
204
330
1F
100
AcDbEntity
  8
NoLayerName_003
  6
DOTSX
 62
     8
370
    25
100
AcDbCircle
 10
80.92810253271821
 20
203.0581570921245
 30
0.0
 40
11.9796679388638
100
AcDbArc
 50
179.0288024294173
 51
225.9711975705828
  0
ARC
  5
205
330
1F
100
AcDbEntity
  8
NoLayerName_003
  6
DOTSX
 62
     8
370
    25
100
AcDbCircle
 10
82.35557555662227
 20
215.8584580607942
 30
0.0
 40
0.5
100
AcDbArc
 50
83.63674051502991
 51
157.5
  0
ARC
  5
206
330
1F
100
AcDbEntity
  8
NoLayerName_003
  6
DOTSX
 62
     8
370
    25
100
AcDbCircle
 10
81.13963020356476
 20
215.536032228091
 30
0.0
 40
0.5
100
AcDbArc
 50
269.0288024294172
 51
337.5000000000001
  0
ARC
  5
207
330
1F
100
AcDbEntity
  8
NoLayerName_003
  6
DOTSX
 62
     8
370
    25
100
AcDbCircle
 10
71.95533975881308
 20
211.7317745651012
 30
0.0
 40
0.5
100
AcDbArc
 50
247.5
 51
315.9711975705828
  0
ARC
  5
208
330
1F
100
AcDbEntity
  8
NoLayerName_003
  6
DOTSX
 62
     8
370
    25
100
AcDbCircle
 10
70.8675470613797
 20
211.0999608531361
 30
0.0
 40
0.5
100
AcDbArc
 50
67.5
 51
141.3632594849701
  0
ARC
  5
209
330
1F
100
AcDbEntity
  8
NoLayerName_003
  6
DOTSX
 62
     8
370
    25
100
AcDbCircle
 10
68.1278015640485
 20
204.4856301160285
 30
0.0
 40
0.5
100
AcDbArc
 50
173.6367405150301
 51
247.5
  0
ARC
  5
20A
330
1F
100
AcDbEntity
  8
NoLayerName_003
  6
DOTSX
 62
     8
370
    25
100
AcDbCircle
 10
68.4502273967517
 20
203.269684762971
 30
0.0
 40
0.5
100
AcDbArc
 50
359.0288024294172
 51
67.49999999999997
  0
ARC
  5
20B
330
1F
100
AcDbEntity
  8
NoLayerName_003
  6
DOTSX
 62
     8
370
    25
100
AcDbCircle
 10
72.25448505974147
 20
194.0853943182194
 30
0.0
 40
0.5
100
AcDbArc
 50
337.4999999999999
 51
45.97119757058277
  0
ARC
  5
20C
330
1F
100
AcDbEntity
  8
NoLayerName_003
  6
DOTSX
 62
     8
370
    25
100
AcDbCircle
 10
72.88629877170655
 20
192.997601620786
 30
0.0
 40
0.5
100
AcDbArc
 50
157.5
 51
231.3632594849699
  0
ARC
  5
20D
330
1F
100
AcDbEntity
  8
NoLayerName_003
  6
DOTSX
 62
     8
370
    25
100
AcDbCircle
 10
79.50062950881416
 20
190.2578561234548
 30
0.0
 40
0.5
100
AcDbArc
 50
263.6367405150299
 51
337.5000000000001
  0
ARC
  5
20E
330
1F
100
AcDbEntity
  8
NoLayerName_003
  6
DOTSX
 62
     8
370
    25
100
AcDbCircle
 10
80.71657486187166
 20
190.580281956158
 30
0.0
 40
0.5
100
AcDbArc
 50
89.0288024294172
 51
157.5
  0
ARC
  5
20F
330
1F
100
AcDbEntity
  8
NoLayerName_003
  6
DOTSX
 62
     8
370
    25
100
AcDbCircle
 10
89.90086530662334
 20
194.3845396191477
 30
0.0
 40
0.5
100
AcDbArc
 50
67.5
 51
135.9711975705828
  0
ARC
  5
210
330
1F
100
AcDbEntity
  8
NoLayerName_003
  6
DOTSX
 62
     8
370
    25
100
AcDbCircle
 10
90.98865800405673
 20
195.0163533311128
 30
0.0
 40
0.5
100
AcDbArc
 50
247.5
 51
321.3632594849701
  0
ARC
  5
211
330
1F
100
AcDbEntity
  8
NoLayerName_003
  6
DOTSX
 62
     8
370
    25
100
AcDbCircle
 10
93.72840350138793
 20
201.6306840682204
 30
0.0
 40
0.5
100
AcDbArc
 50
353.6367405150301
 51
67.49999999999997
  0
ARC
  5
212
330
1F
100
AcDbEntity
  8
NoLayerName_003
  6
DOTSX
 62
     8
370
    25
100
AcDbCircle
 10
93.40597766868473
 20
202.8466294212779
 30
0.0
 40
0.5
100
AcDbArc
 50
179.0288024294173
 51
247.5
  0
ARC
  5
213
330
1F
100
AcDbEntity
  8
NoLayerName_003
  6
DOTSX
 62
     8
370
    25
100
AcDbCircle
 10
89.60172000569496
 20
212.0309198660296
 30
0.0
 40
0.5
100
AcDbArc
 50
157.5
 51
225.9711975705828
  0
ARC
  5
214
330
1F
100
AcDbEntity
  8
NoLayerName_003
  6
DOTSX
 62
     8
370
    25
100
AcDbCircle
 10
88.96990629372988
 20
213.118712563463
 30
0.0
 40
0.5
100
AcDbArc
 50
337.4999999999999
 51
51.36325948496991
  0
LINE
  5
215
330
1F
100
AcDbEntity
  8
NoLayerName_003
  6
DOTSX
 62
     8
370
    25
100
AcDbLine
 10
81.3020548293071
 20
191.0843271448888
 30
0.0
 11
81.99934729600474
 21
189.8013688439426
 31
0.0
  0
LINE
  5
216
330
1F
100
AcDbEntity
  8
NoLayerName_003
  6
DOTSX
 62
     8
370
    25
100
AcDbLine
 10
84.0712992467205
 20
191.4981934960517
 30
0.0
 11
83.77957585005618
 21
190.0674257839759
 31
0.0
  0
ARC
  5
217
330
1F
100
AcDbEntity
  8
NoLayerName_003
  6
DOTSX
 62
     8
370
    25
100
AcDbCircle
 10
80.92810253271821
 20
203.0581570921245
 30
0.0
 40
13.1
100
AcDbArc
 50
282.7684224773944
 51
310.9132403682719
  0
ARC
  5
218
330
1F
100
AcDbEntity
  8
NoLayerName_003
  6
DOTSX
 62
     8
370
    25
100
AcDbCircle
 10
80.92810253271821
 20
203.0581570921245
 30
0.0
 40
13.1
100
AcDbArc
 50
274.0867596317281
 51
274.231577522606
  0
INSERT
  5
221
330
1F
100
AcDbEntity
  8
NoLayerName_003
  6
Continuous
 62
     7
370
    25
100
AcDbBlockReference
  2
*X1
 10
81.60426330566406
 20
189.8400268554688
 30
0.0
  0
CIRCLE
  5
222
330
1F
100
AcDbEntity
  8
NoLayerName_001
  6
DOTSX
 62
     8
370
    25
100
AcDbCircle
 10
80.92810253271821
 20
203.0581570921245
 30
0.0
 40
0.75
  0
LINE
  5
223
330
1F
100
AcDbEntity
  8
NoLayerName_001
  6
DOTSX
 62
     7
370
    25
100
AcDbLine
 10
144.3804760649408
 20
214.4975099202933
 30
0.0
 11
144.4397827709898
 21
215.6608938310866
 31
0.0
  0
LINE
  5
224
330
1F
100
AcDbEntity
  8
NoLayerName_001
  6
DOTSX
 62
     7
370
    25
100
AcDbLine
 10
142.5327169999182
 20
213.7321430555631
 30
0.0
 11
141.6681441734559
 21
214.5128435339914
 31
0.0
  0
CIRCLE
  5
225
330
1F
100
AcDbEntity
  8
NoLayerName_003
  6
Continuous
 62
     3
370
    50
100
AcDbCircle
 10
138.2086335484182
 20
226.7845298987602
 30
0.0
 40
15.6
  0
LINE
  5
226
330
1F
100
AcDbEntity
  8
NoLayerName_003
  6
DOTSX
 62
     3
370
    25
100
AcDbLine
 10
138.0177680360276
 20
212.2128597694931
 30
0.0
 11
138.303871340984
 21
212.9035742485585
 31
0.0
  0
LINE
  5
227
330
1F
100
AcDbEntity
  8
NoLayerName_003
  6
DOTSX
 62
     3
370
    25
100
AcDbLine
 10
152.0895891986199
 20
226.8797676913264
 30
0.0
 11
152.7803036776857
 21
226.5936643863699
 31
0.0
  0
LINE
  5
228
330
1F
100
AcDbEntity
  8
NoLayerName_003
  6
DOTSX
 62
     3
370
    25
100
AcDbLine
 10
148.6473226081426
 20
216.6157654352479
 30
0.0
 11
147.9566081290771
 21
216.9018687402043
 31
0.0
  0
LINE
  5
229
330
1F
100
AcDbEntity
  8
NoLayerName_003
  6
DOTSX
 62
     3
370
    25
100
AcDbLine
 10
148.0912947069743
 20
236.5325044794188
 30
0.0
 11
148.3773980119307
 21
237.2232189584844
 31
0.0
  0
ARC
  5
22A
330
1F
100
AcDbEntity
  8
NoLayerName_003
  6
DOTSX
 62
     3
370
    25
100
AcDbCircle
 10
138.2086335484182
 20
226.7845298987602
 30
0.0
 40
14.7
100
AcDbArc
 50
46.48448800565551
 51
88.51551199434357
  0
ARC
  5
22B
330
1F
100
AcDbEntity
  8
NoLayerName_003
  6
DOTSX
 62
     3
370
    25
100
AcDbCircle
 10
148.1926221054284
 20
237.2997556449574
 30
0.0
 40
0.2
100
AcDbArc
 50
337.4999999999999
 51
46.48448800565543
  0
ARC
  5
22C
330
1F
100
AcDbEntity
  8
NoLayerName_003
  6
DOTSX
 62
     3
370
    25
100
AcDbCircle
 10
138.2086335484182
 20
226.7845298987602
 30
0.0
 40
14.7
100
AcDbArc
 50
136.4844880056555
 51
178.5155119943436
  0
ARC
  5
22D
330
1F
100
AcDbEntity
  8
NoLayerName_003
  6
DOTSX
 62
     3
370
    25
100
AcDbCircle
 10
123.7135001056241
 20
227.1601713176531
 30
0.0
 40
0.2
100
AcDbArc
 50
178.5155119943436
 51
247.5
  0
ARC
  5
22E
330
1F
100
AcDbEntity
  8
NoLayerName_003
  6
DOTSX
 62
     3
370
    25
100
AcDbCircle
 10
138.2086335484182
 20
226.7845298987602
 30
0.0
 40
14.7
100
AcDbArc
 50
226.4844880056555
 51
268.5155119943436
  0
ARC
  5
22F
330
1F
100
AcDbEntity
  8
NoLayerName_003
  6
DOTSX
 62
     3
370
    25
100
AcDbCircle
 10
137.8329921295255
 20
212.289396455966
 30
0.0
 40
0.2
100
AcDbArc
 50
268.5155119943436
 51
337.4999999999999
  0
ARC
  5
230
330
1F
100
AcDbEntity
  8
NoLayerName_003
  6
DOTSX
 62
     3
370
    25
100
AcDbCircle
 10
148.7238592946156
 20
216.80054134175
 30
0.0
 40
0.2
100
AcDbArc
 50
247.5
 51
316.4844880056554
  0
ARC
  5
231
330
1F
100
AcDbEntity
  8
NoLayerName_003
  6
DOTSX
 62
     3
370
    25
100
AcDbCircle
 10
138.2086335484182
 20
226.7845298987602
 30
0.0
 40
14.7
100
AcDbArc
 50
316.4844880056555
 51
358.5155119943436
  0
ARC
  5
232
330
1F
100
AcDbEntity
  8
NoLayerName_003
  6
DOTSX
 62
     3
370
    25
100
AcDbCircle
 10
152.7037669912125
 20
226.4088884798674
 30
0.0
 40
0.2
100
AcDbArc
 50
358.5155119943436
 51
67.49999999999997
  0
LINE
  5
233
330
1F
100
AcDbEntity
  8
NoLayerName_003
  6
DOTSX
 62
     7
370
    25
100
AcDbLine
 10
124.937057348991
 20
221.6119807029771
 30
0.0
 11
123.8687836221909
 21
221.1694872370096
 31
0.0
  0
LINE
  5
234
330
1F
100
AcDbEntity
  8
NoLayerName_003
  6
DOTSX
 62
     7
370
    25
100
AcDbLine
 10
125.6360805407645
 20
220.0749067519547
 30
0.0
 11
124.6146894708956
 21
219.5481852125817
 31
0.0
  0
LINE
  5
235
330
1F
100
AcDbEntity
  8
NoLayerName_003
  6
DOTSX
 62
     7
370
    25
100
AcDbLine
 10
143.3811827442013
 20
213.5129536993329
 30
0.0
 11
143.8236762101688
 21
212.4446799725328
 31
0.0
  0
LINE
  5
236
330
1F
100
AcDbEntity
  8
NoLayerName_003
  6
DOTSX
 62
     7
370
    25
100
AcDbLine
 10
144.9182566952238
 20
214.2119768911065
 30
0.0
 11
145.4449782345969
 21
213.1905858212375
 31
0.0
  0
LINE
  5
237
330
1F
100
AcDbEntity
  8
NoLayerName_003
  6
DOTSX
 62
     7
370
    25
100
AcDbLine
 10
151.4802097478455
 20
231.9570790945432
 30
0.0
 11
152.5484834746455
 21
232.3995725605107
 31
0.0
  0
LINE
  5
238
330
1F
100
AcDbEntity
  8
NoLayerName_003
  6
DOTSX
 62
     7
370
    25
100
AcDbLine
 10
150.781186556072
 20
233.4941530455656
 30
0.0
 11
151.8025776259412
 21
234.0208745849388
 31
0.0
  0
ARC
  5
239
330
1F
100
AcDbEntity
  8
NoLayerName_003
  6
DOTSX
 62
     7
370
    25
100
AcDbCircle
 10
138.2086335484182
 20
226.7845298987602
 30
0.0
 40
15.4
100
AcDbArc
 50
21.38377784414154
 51
28.02731948911318
  0
ARC
  5
23A
330
1F
100
AcDbEntity
  8
NoLayerName_003
  6
DOTSX
 62
     7
370
    25
100
AcDbCircle
 10
138.2086335484182
 20
226.7845298987602
 30
0.0
 40
15.4
100
AcDbArc
 50
291.3837778441415
 51
298.027319489112
  0
ARC
  5
23B
330
1F
100
AcDbEntity
  8
NoLayerName_003
  6
DOTSX
 62
     3
370
    25
100
AcDbCircle
 10
138.2086335484182
 20
226.7845298987602
 30
0.0
 40
13.3
100
AcDbArc
 50
184.086759631728
 51
220.9132403682721
  0
LINE
  5
23C
330
1F
100
AcDbEntity
  8
NoLayerName_003
  6
DOTSX
 62
     3
370
    25
100
AcDbLine
 10
124.3276778982166
 20
226.6892921061944
 30
0.0
 11
123.6369634191511
 21
226.9753954111508
 31
0.0
  0
ARC
  5
23D
330
1F
100
AcDbEntity
  8
NoLayerName_003
  6
DOTSX
 62
     3
370
    25
100
AcDbCircle
 10
123.9449944658514
 20
225.7654125736832
 30
0.0
 40
1.0
100
AcDbArc
 50
4.086759631727912
 51
67.49999999999997
  0
ARC
  5
23E
330
1F
100
AcDbEntity
  8
NoLayerName_003
  6
DOTSX
 62
     3
370
    25
100
AcDbCircle
 10
138.2086335484182
 20
226.7845298987602
 30
0.0
 40
13.3
100
AcDbArc
 50
4.086759631729947
 51
40.91324036827046
  0
ARC
  5
23F
330
1F
100
AcDbEntity
  8
NoLayerName_003
  6
DOTSX
 62
     3
370
    25
100
AcDbCircle
 10
149.0151742394856
 20
236.1498210470536
 30
0.0
 40
1.0
100
AcDbArc
 50
157.5
 51
220.9132403682705
  0
ARC
  5
240
330
1F
100
AcDbEntity
  8
NoLayerName_003
  6
DOTSX
 62
     3
370
    25
100
AcDbCircle
 10
152.4722726309851
 20
227.8036472238376
 30
0.0
 40
1.0
100
AcDbArc
 50
184.0867596317299
 51
247.5
  0
ARC
  5
241
330
1F
100
AcDbEntity
  8
NoLayerName_003
  6
DOTSX
 62
     3
370
    25
100
AcDbCircle
 10
147.5739246967121
 20
215.977989207693
 30
0.0
 40
1.0
100
AcDbArc
 50
67.50000000000003
 51
130.9132403682719
  0
ARC
  5
242
330
1F
100
AcDbEntity
  8
NoLayerName_003
  6
DOTSX
 62
     3
370
    25
100
AcDbCircle
 10
138.2086335484182
 20
226.7845298987602
 30
0.0
 40
13.3
100
AcDbArc
 50
274.0867596317281
 51
310.9132403682719
  0
ARC
  5
243
330
1F
100
AcDbEntity
  8
NoLayerName_003
  6
DOTSX
 62
     3
370
    25
100
AcDbCircle
 10
139.2277508734953
 20
212.5208908161933
 30
0.0
 40
1.0
100
AcDbArc
 50
94.08675963172811
 51
157.5
  0
ARC
  5
244
330
1F
100
AcDbEntity
  8
NoLayerName_003
  6
DOTSX
 62
     3
370
    25
100
AcDbCircle
 10
128.2246449914084
 20
216.2693041525628
 30
0.0
 40
0.2
100
AcDbArc
 50
157.5
 51
226.4844880056564
  0
LINE
  5
245
330
1F
100
AcDbEntity
  8
NoLayerName_003
  6
DOTSX
 62
     3
370
    25
100
AcDbLine
 10
128.3259723898624
 20
217.0365553181013
 30
0.0
 11
128.0398690849061
 21
216.3458408390359
 31
0.0
  0
ARC
  5
246
330
1F
100
AcDbEntity
  8
NoLayerName_003
  6
DOTSX
 62
     3
370
    25
100
AcDbCircle
 10
127.4020928573512
 20
217.4192387504663
 30
0.0
 40
1.0
100
AcDbArc
 50
337.5000000000001
 51
40.91324036827208
  0
LINE
  5
247
330
1F
100
AcDbEntity
  8
NoLayerName_003
  6
DOTSX
 62
     3
370
    25
100
AcDbLine
 10
138.1133957558526
 20
240.6654855489619
 30
0.0
 11
138.399499060809
 21
241.3562000280275
 31
0.0
  0
LINE
  5
248
330
1F
100
AcDbEntity
  8
NoLayerName_003
  6
DOTSX
 62
     3
370
    25
100
AcDbLine
 10
128.4606589677593
 20
236.6671910573159
 30
0.0
 11
127.769944488694
 21
236.9532943622723
 31
0.0
  0
ARC
  5
249
330
1F
100
AcDbEntity
  8
NoLayerName_003
  6
DOTSX
 62
     3
370
    25
100
AcDbCircle
 10
138.5842749673113
 20
241.2796633415543
 30
0.0
 40
0.2
100
AcDbArc
 50
88.51551199434357
 51
157.5
  0
ARC
  5
24A
330
1F
100
AcDbEntity
  8
NoLayerName_003
  6
DOTSX
 62
     3
370
    25
100
AcDbCircle
 10
127.6934078022211
 20
236.7685184557704
 30
0.0
 40
0.2
100
AcDbArc
 50
67.5
 51
136.4844880056555
  0
LINE
  5
24B
330
1F
100
AcDbEntity
  8
NoLayerName_003
  6
DOTSX
 62
     7
370
    25
100
AcDbLine
 10
133.0360843526352
 20
240.0561060981874
 30
0.0
 11
132.5935908866677
 21
241.1243798249875
 31
0.0
  0
LINE
  5
24C
330
1F
100
AcDbEntity
  8
NoLayerName_003
  6
DOTSX
 62
     7
370
    25
100
AcDbLine
 10
131.4990104016129
 20
239.3570829064139
 30
0.0
 11
130.9722888622399
 21
240.3784739762829
 31
0.0
  0
ARC
  5
24D
330
1F
100
AcDbEntity
  8
NoLayerName_003
  6
DOTSX
 62
     7
370
    25
100
AcDbCircle
 10
138.2086335484182
 20
226.7845298987602
 30
0.0
 40
15.4
100
AcDbArc
 50
111.3837778441416
 51
118.0273194891118
  0
ARC
  5
24E
330
1F
100
AcDbEntity
  8
NoLayerName_003
  6
DOTSX
 62
     7
370
    25
100
AcDbCircle
 10
138.2086335484182
 20
226.7845298987602
 30
0.0
 40
15.4
100
AcDbArc
 50
201.3837778441415
 51
208.0273194891119
  0
ARC
  5
24F
330
1F
100
AcDbEntity
  8
NoLayerName_003
  6
DOTSX
 62
     3
370
    25
100
AcDbCircle
 10
138.2086335484182
 20
226.7845298987602
 30
0.0
 40
13.3
100
AcDbArc
 50
94.08675963172809
 51
130.9132403682719
  0
ARC
  5
250
330
1F
100
AcDbEntity
  8
NoLayerName_003
  6
DOTSX
 62
     3
370
    25
100
AcDbCircle
 10
128.8433424001244
 20
237.5910705898274
 30
0.0
 40
1.0
100
AcDbArc
 50
247.5
 51
310.9132403682719
  0
ARC
  5
251
330
1F
100
AcDbEntity
  8
NoLayerName_003
  6
DOTSX
 62
     3
370
    25
100
AcDbCircle
 10
137.1895162233412
 20
241.048168981327
 30
0.0
 40
1.0
100
AcDbArc
 50
274.0867596317281
 51
337.5000000000001
  0
ARC
  5
252
330
1F
100
AcDbEntity
  8
NoLayerName_003
  6
DOTSX
 62
     8
370
    25
100
AcDbCircle
 10
138.2086335484182
 20
226.7845298987602
 30
0.0
 40
14.5
100
AcDbArc
 50
46.48448800565551
 51
88.51551199434357
  0
LINE
  5
253
330
1F
100
AcDbEntity
  8
NoLayerName_003
  6
DOTSX
 62
     8
370
    25
100
AcDbLine
 10
138.2981716623548
 20
240.5889488624889
 30
0.0
 11
138.5842749673113
 21
241.2796633415545
 31
0.0
  0
ARC
  5
254
330
1F
100
AcDbEntity
  8
NoLayerName_003
  6
DOTSX
 62
     8
370
    25
100
AcDbCircle
 10
137.1895162233412
 20
241.048168981327
 30
0.0
 40
1.2
100
AcDbArc
 50
274.0867707635746
 51
337.4999999999962
  0
ARC
  5
255
330
1F
100
AcDbEntity
  8
NoLayerName_003
  6
DOTSX
 62
     8
370
    25
100
AcDbCircle
 10
138.2086335484182
 20
226.7845298987602
 30
0.0
 40
13.1
100
AcDbArc
 50
94.08675963172809
 51
130.9132403682717
  0
ARC
  5
256
330
1F
100
AcDbEntity
  8
NoLayerName_003
  6
DOTSX
 62
     8
370
    25
100
AcDbCircle
 10
147.5739246967121
 20
215.977989207693
 30
0.0
 40
1.2
100
AcDbArc
 50
67.49999999999756
 51
130.9132403682719
  0
LINE
  5
257
330
1F
100
AcDbEntity
  8
NoLayerName_003
  6
DOTSX
 62
     8
370
    25
100
AcDbLine
 10
148.7238592946155
 20
216.8005413417502
 30
0.0
 11
148.0331448155501
 21
217.0866446467066
 31
0.0
  0
ARC
  5
258
330
1F
100
AcDbEntity
  8
NoLayerName_003
  6
DOTSX
 62
     8
370
    25
100
AcDbCircle
 10
138.2086335484182
 20
226.7845298987602
 30
0.0
 40
14.5
100
AcDbArc
 50
316.4844880056555
 51
358.5155119943436
  0
LINE
  5
259
330
1F
100
AcDbEntity
  8
NoLayerName_003
  6
DOTSX
 62
     8
370
    25
100
AcDbLine
 10
152.0130525121469
 20
226.6949917848241
 30
0.0
 11
152.7037669912126
 21
226.4088884798676
 31
0.0
  0
ARC
  5
25A
330
1F
100
AcDbEntity
  8
NoLayerName_003
  6
DOTSX
 62
     8
370
    25
100
AcDbCircle
 10
152.4722726309851
 20
227.8036472238376
 30
0.0
 40
1.2
100
AcDbArc
 50
184.0867596317299
 51
247.4999999999986
  0
ARC
  5
25B
330
1F
100
AcDbEntity
  8
NoLayerName_003
  6
DOTSX
 62
     8
370
    25
100
AcDbCircle
 10
138.2086335484182
 20
226.7845298987602
 30
0.0
 40
13.1
100
AcDbArc
 50
4.086759631729947
 51
40.91324036827065
  0
ARC
  5
25C
330
1F
100
AcDbEntity
  8
NoLayerName_003
  6
DOTSX
 62
     8
370
    25
100
AcDbCircle
 10
149.0151742394856
 20
236.1498210470536
 30
0.0
 40
1.2
100
AcDbArc
 50
157.5000110661712
 51
220.9132403682704
  0
LINE
  5
25D
330
1F
100
AcDbEntity
  8
NoLayerName_003
  6
DOTSX
 62
     8
370
    25
100
AcDbLine
 10
147.906518800472
 20
236.6090411658919
 30
0.0
 11
148.1926221054285
 21
237.2997556449574
 31
0.0
  0
ARC
  5
25E
330
1F
100
AcDbEntity
  8
NoLayerName_003
  6
DOTSX
 62
     8
370
    25
100
AcDbCircle
 10
138.2086335484182
 20
226.7845298987602
 30
0.0
 40
14.5
100
AcDbArc
 50
136.4844880056555
 51
178.5155119943436
  0
LINE
  5
25F
330
1F
100
AcDbEntity
  8
NoLayerName_003
  6
DOTSX
 62
     8
370
    25
100
AcDbLine
 10
124.4042145846895
 20
226.8740680126967
 30
0.0
 11
123.7135001056241
 21
227.1601713176531
 31
0.0
  0
ARC
  5
260
330
1F
100
AcDbEntity
  8
NoLayerName_003
  6
DOTSX
 62
     8
370
    25
100
AcDbCircle
 10
123.9449944658514
 20
225.7654125736832
 30
0.0
 40
1.2
100
AcDbArc
 50
4.086760839146161
 51
67.50000000000051
  0
ARC
  5
261
330
1F
100
AcDbEntity
  8
NoLayerName_003
  6
DOTSX
 62
     8
370
    25
100
AcDbCircle
 10
138.2086335484182
 20
226.7845298987602
 30
0.0
 40
13.1
100
AcDbArc
 50
184.0867564371995
 51
220.9132403682723
  0
ARC
  5
262
330
1F
100
AcDbEntity
  8
NoLayerName_003
  6
DOTSX
 62
     8
370
    25
100
AcDbCircle
 10
127.4020928573512
 20
217.4192387504663
 30
0.0
 40
1.2
100
AcDbArc
 50
337.4999999999992
 51
40.91323951449843
  0
LINE
  5
263
330
1F
100
AcDbEntity
  8
NoLayerName_003
  6
DOTSX
 62
     8
370
    25
100
AcDbLine
 10
128.5107482963647
 20
216.9600186316282
 30
0.0
 11
128.2246449914084
 21
216.2693041525628
 31
0.0
  0
ARC
  5
264
330
1F
100
AcDbEntity
  8
NoLayerName_003
  6
DOTSX
 62
     8
370
    25
100
AcDbCircle
 10
138.2086335484182
 20
226.7845298987602
 30
0.0
 40
14.5
100
AcDbArc
 50
226.4844880056555
 51
268.5155119943436
  0
ARC
  5
265
330
1F
100
AcDbEntity
  8
NoLayerName_003
  6
DOTSX
 62
     8
370
    25
100
AcDbCircle
 10
128.8433424001244
 20
237.5910705898274
 30
0.0
 40
1.2
100
AcDbArc
 50
247.5
 51
310.9132403682714
  0
LINE
  5
266
330
1F
100
AcDbEntity
  8
NoLayerName_003
  6
DOTSX
 62
     8
370
    25
100
AcDbLine
 10
138.1190954344818
 20
212.9801109350315
 30
0.0
 11
137.8329921295254
 21
212.2893964559661
 31
0.0
  0
LINE
  5
267
330
1F
100
AcDbEntity
  8
NoLayerName_003
  6
DOTSX
 62
     8
370
    25
100
AcDbLine
 10
128.3841222812864
 20
236.4824151508137
 30
0.0
 11
127.693407802221
 21
236.7685184557701
 31
0.0
  0
ARC
  5
268
330
1F
100
AcDbEntity
  8
NoLayerName_003
  6
DOTSX
 62
     8
370
    25
100
AcDbCircle
 10
139.2277508734953
 20
212.5208908161933
 30
0.0
 40
1.2
100
AcDbArc
 50
94.0867596317296
 51
157.499999999999
  0
ARC
  5
269
330
1F
100
AcDbEntity
  8
NoLayerName_003
  6
DOTSX
 62
     7
370
    25
100
AcDbCircle
 10
124.5543739166259
 20
222.5358602354884
 30
0.0
 40
1.0
100
AcDbArc
 50
292.5000000000001
 51
17.28409142954608
  0
ARC
  5
26A
330
1F
100
AcDbEntity
  8
NoLayerName_003
  6
DOTSX
 62
     7
370
    25
100
AcDbCircle
 10
126.0944155707235
 20
219.1861272515652
 30
0.0
 40
1.0
100
AcDbArc
 50
32.09717617793611
 51
117.2797221100646
  0
ARC
  5
26B
330
1F
100
AcDbEntity
  8
NoLayerName_003
  6
DOTSX
 62
     7
370
    25
100
AcDbCircle
 10
142.45730321169
 20
213.1302702669678
 30
0.0
 40
1.0
100
AcDbArc
 50
22.50000000000002
 51
107.2840914295461
  0
ARC
  5
26C
330
1F
100
AcDbEntity
  8
NoLayerName_003
  6
DOTSX
 62
     7
370
    25
100
AcDbCircle
 10
145.8070361956132
 20
214.6703119210655
 30
0.0
 40
1.0
100
AcDbArc
 50
122.0971761779364
 51
207.2797221100646
  0
ARC
  5
26D
330
1F
100
AcDbEntity
  8
NoLayerName_003
  6
DOTSX
 62
     7
370
    25
100
AcDbCircle
 10
151.8628931802106
 20
231.0331995620319
 30
0.0
 40
1.0
100
AcDbArc
 50
112.5
 51
197.2840914295461
  0
ARC
  5
26E
330
1F
100
AcDbEntity
  8
NoLayerName_003
  6
DOTSX
 62
     7
370
    25
100
AcDbCircle
 10
150.322851526113
 20
234.382932545955
 30
0.0
 40
1.0
100
AcDbArc
 50
212.0971761779359
 51
297.2797221100646
  0
ARC
  5
26F
330
1F
100
AcDbEntity
  8
NoLayerName_003
  6
DOTSX
 62
     7
370
    25
100
AcDbCircle
 10
130.6102309012235
 20
238.8987478764549
 30
0.0
 40
1.0
100
AcDbArc
 50
302.0971761779355
 51
27.27972211006455
  0
ARC
  5
270
330
1F
100
AcDbEntity
  8
NoLayerName_003
  6
DOTSX
 62
     7
370
    25
100
AcDbCircle
 10
133.9599638851465
 20
240.4387895305525
 30
0.0
 40
1.0
100
AcDbArc
 50
202.5
 51
287.284091429546
  0
ARC
  5
271
330
1F
100
AcDbEntity
  8
NoLayerName_003
  6
DOTSX
 62
     8
370
    25
100
AcDbCircle
 10
138.2086335484182
 20
226.7845298987602
 30
0.0
 40
13.37965
100
AcDbArc
 50
141.3632594849701
 51
173.6367405150301
  0
LINE
  5
272
330
1F
100
AcDbEntity
  8
NoLayerName_003
  6
DOTSX
 62
     8
370
    25
100
AcDbLine
 10
128.3394197932623
 20
235.2882734260274
 30
0.0
 11
129.0445290583306
 21
234.9962076054812
 31
0.0
  0
LINE
  5
273
330
1F
100
AcDbEntity
  8
NoLayerName_003
  6
DOTSX
 62
     8
370
    25
100
AcDbLine
 10
138.8821009855204
 20
239.0710633185442
 30
0.0
 11
139.1741668060666
 21
239.7761725836125
 31
0.0
  0
ARC
  5
274
330
1F
100
AcDbEntity
  8
NoLayerName_003
  6
DOTSX
 62
     8
370
    25
100
AcDbCircle
 10
138.2086335484182
 20
226.7845298987602
 30
0.0
 40
11.9796679388638
100
AcDbArc
 50
89.0288024294172
 51
135.9711975705828
  0
ARC
  5
275
330
1F
100
AcDbEntity
  8
NoLayerName_003
  6
DOTSX
 62
     8
370
    25
100
AcDbCircle
 10
138.2086335484182
 20
226.7845298987602
 30
0.0
 40
13.37965
100
AcDbArc
 50
51.36325948496994
 51
83.63674051502993
  0
LINE
  5
276
330
1F
100
AcDbEntity
  8
NoLayerName_003
  6
DOTSX
 62
     8
370
    25
100
AcDbLine
 10
146.7123770756856
 20
236.6537436539161
 30
0.0
 11
146.4203112551394
 21
235.9486343888478
 31
0.0
  0
LINE
  5
277
330
1F
100
AcDbEntity
  8
NoLayerName_003
  6
DOTSX
 62
     8
370
    25
100
AcDbLine
 10
150.4951669682022
 20
226.1110624616579
 30
0.0
 11
151.2002762332705
 21
225.8189966411117
 31
0.0
  0
ARC
  5
278
330
1F
100
AcDbEntity
  8
NoLayerName_003
  6
DOTSX
 62
     8
370
    25
100
AcDbCircle
 10
138.2086335484182
 20
226.7845298987602
 30
0.0
 40
11.9796679388638
100
AcDbArc
 50
359.0288024294172
 51
45.97119757058277
  0
ARC
  5
279
330
1F
100
AcDbEntity
  8
NoLayerName_003
  6
DOTSX
 62
     8
370
    25
100
AcDbCircle
 10
138.2086335484182
 20
226.7845298987602
 30
0.0
 40
13.37965
100
AcDbArc
 50
321.3632594849701
 51
353.6367405150301
  0
LINE
  5
27A
330
1F
100
AcDbEntity
  8
NoLayerName_003
  6
DOTSX
 62
     8
370
    25
100
AcDbLine
 10
148.0778473035742
 20
218.2807863714929
 30
0.0
 11
147.3727380385059
 21
218.5728521920391
 31
0.0
  0
LINE
  5
27B
330
1F
100
AcDbEntity
  8
NoLayerName_003
  6
DOTSX
 62
     8
370
    25
100
AcDbLine
 10
137.5351661113161
 20
214.4979964789761
 30
0.0
 11
137.2431002907699
 21
213.7928872139078
 31
0.0
  0
ARC
  5
27C
330
1F
100
AcDbEntity
  8
NoLayerName_003
  6
DOTSX
 62
     8
370
    25
100
AcDbCircle
 10
138.2086335484182
 20
226.7845298987602
 30
0.0
 40
11.9796679388638
100
AcDbArc
 50
269.0288024294172
 51
315.9711975705828
  0
ARC
  5
27D
330
1F
100
AcDbEntity
  8
NoLayerName_003
  6
DOTSX
 62
     8
370
    25
100
AcDbCircle
 10
138.2086335484182
 20
226.7845298987602
 30
0.0
 40
13.37965
100
AcDbArc
 50
231.3632594849699
 51
263.6367405150299
  0
LINE
  5
27E
330
1F
100
AcDbEntity
  8
NoLayerName_003
  6
DOTSX
 62
     8
370
    25
100
AcDbLine
 10
129.7048900211509
 20
216.9153161436042
 30
0.0
 11
129.9969558416971
 21
217.6204254086725
 31
0.0
  0
LINE
  5
27F
330
1F
100
AcDbEntity
  8
NoLayerName_003
  6
DOTSX
 62
     8
370
    25
100
AcDbLine
 10
125.9221001286343
 20
227.4579973358624
 30
0.0
 11
125.216990863566
 21
227.7500631564086
 31
0.0
  0
ARC
  5
280
330
1F
100
AcDbEntity
  8
NoLayerName_003
  6
DOTSX
 62
     8
370
    25
100
AcDbCircle
 10
138.2086335484182
 20
226.7845298987602
 30
0.0
 40
11.9796679388638
100
AcDbArc
 50
179.0288024294173
 51
225.9711975705828
  0
ARC
  5
281
330
1F
100
AcDbEntity
  8
NoLayerName_003
  6
DOTSX
 62
     8
370
    25
100
AcDbCircle
 10
139.6361065723223
 20
239.5848308674299
 30
0.0
 40
0.5
100
AcDbArc
 50
83.63674051502991
 51
157.5
  0
ARC
  5
282
330
1F
100
AcDbEntity
  8
NoLayerName_003
  6
DOTSX
 62
     8
370
    25
100
AcDbCircle
 10
138.4201612192648
 20
239.2624050347267
 30
0.0
 40
0.5
100
AcDbArc
 50
269.0288024294172
 51
337.5000000000001
  0
ARC
  5
283
330
1F
100
AcDbEntity
  8
NoLayerName_003
  6
DOTSX
 62
     8
370
    25
100
AcDbCircle
 10
129.2358707745131
 20
235.4581473717369
 30
0.0
 40
0.5
100
AcDbArc
 50
247.5
 51
315.9711975705828
  0
ARC
  5
284
330
1F
100
AcDbEntity
  8
NoLayerName_003
  6
DOTSX
 62
     8
370
    25
100
AcDbCircle
 10
128.1480780770797
 20
234.8263336597718
 30
0.0
 40
0.5
100
AcDbArc
 50
67.5
 51
141.3632594849701
  0
ARC
  5
285
330
1F
100
AcDbEntity
  8
NoLayerName_003
  6
DOTSX
 62
     8
370
    25
100
AcDbCircle
 10
125.4083325797485
 20
228.2120029226642
 30
0.0
 40
0.5
100
AcDbArc
 50
173.6367405150301
 51
247.5
  0
ARC
  5
286
330
1F
100
AcDbEntity
  8
NoLayerName_003
  6
DOTSX
 62
     8
370
    25
100
AcDbCircle
 10
125.7307584124517
 20
226.9960575696067
 30
0.0
 40
0.5
100
AcDbArc
 50
359.0288024294172
 51
67.49999999999997
  0
ARC
  5
287
330
1F
100
AcDbEntity
  8
NoLayerName_003
  6
DOTSX
 62
     8
370
    25
100
AcDbCircle
 10
129.5350160754415
 20
217.811767124855
 30
0.0
 40
0.5
100
AcDbArc
 50
337.4999999999999
 51
45.97119757058277
  0
ARC
  5
288
330
1F
100
AcDbEntity
  8
NoLayerName_003
  6
DOTSX
 62
     8
370
    25
100
AcDbCircle
 10
130.1668297874066
 20
216.7239744274216
 30
0.0
 40
0.5
100
AcDbArc
 50
157.5
 51
231.3632594849699
  0
ARC
  5
289
330
1F
100
AcDbEntity
  8
NoLayerName_003
  6
DOTSX
 62
     8
370
    25
100
AcDbCircle
 10
136.7811605245142
 20
213.9842289300904
 30
0.0
 40
0.5
100
AcDbArc
 50
263.6367405150299
 51
337.5000000000001
  0
ARC
  5
28A
330
1F
100
AcDbEntity
  8
NoLayerName_003
  6
DOTSX
 62
     8
370
    25
100
AcDbCircle
 10
137.9971058775717
 20
214.3066547627936
 30
0.0
 40
0.5
100
AcDbArc
 50
89.0288024294172
 51
157.5
  0
ARC
  5
28B
330
1F
100
AcDbEntity
  8
NoLayerName_003
  6
DOTSX
 62
     8
370
    25
100
AcDbCircle
 10
147.1813963223234
 20
218.1109124257834
 30
0.0
 40
0.5
100
AcDbArc
 50
67.5
 51
135.9711975705828
  0
ARC
  5
28C
330
1F
100
AcDbEntity
  8
NoLayerName_003
  6
DOTSX
 62
     8
370
    25
100
AcDbCircle
 10
148.2691890197568
 20
218.7427261377485
 30
0.0
 40
0.5
100
AcDbArc
 50
247.5
 51
321.3632594849701
  0
ARC
  5
28D
330
1F
100
AcDbEntity
  8
NoLayerName_003
  6
DOTSX
 62
     8
370
    25
100
AcDbCircle
 10
151.008934517088
 20
225.3570568748561
 30
0.0
 40
0.5
100
AcDbArc
 50
353.6367405150301
 51
67.49999999999997
  0
ARC
  5
28E
330
1F
100
AcDbEntity
  8
NoLayerName_003
  6
DOTSX
 62
     8
370
    25
100
AcDbCircle
 10
150.6865086843848
 20
226.5730022279136
 30
0.0
 40
0.5
100
AcDbArc
 50
179.0288024294173
 51
247.5
  0
ARC
  5
28F
330
1F
100
AcDbEntity
  8
NoLayerName_003
  6
DOTSX
 62
     8
370
    25
100
AcDbCircle
 10
146.882251021395
 20
235.7572926726653
 30
0.0
 40
0.5
100
AcDbArc
 50
157.5
 51
225.9711975705828
  0
ARC
  5
290
330
1F
100
AcDbEntity
  8
NoLayerName_003
  6
DOTSX
 62
     8
370
    25
100
AcDbCircle
 10
146.2504373094299
 20
236.8450853700987
 30
0.0
 40
0.5
100
AcDbArc
 50
337.4999999999999
 51
51.36325948496991
  0
LINE
  5
291
330
1F
100
AcDbEntity
  8
NoLayerName_003
  6
DOTSX
 62
     8
370
    25
100
AcDbLine
 10
138.5825858450071
 20
214.8106999515245
 30
0.0
 11
139.2798783117048
 21
213.5277416505783
 31
0.0
  0
LINE
  5
292
330
1F
100
AcDbEntity
  8
NoLayerName_003
  6
DOTSX
 62
     8
370
    25
100
AcDbLine
 10
141.3518302624205
 20
215.2245663026874
 30
0.0
 11
141.0601068657562
 21
213.7937985906116
 31
0.0
  0
ARC
  5
293
330
1F
100
AcDbEntity
  8
NoLayerName_003
  6
DOTSX
 62
     8
370
    25
100
AcDbCircle
 10
138.2086335484182
 20
226.7845298987602
 30
0.0
 40
13.1
100
AcDbArc
 50
282.7684224773944
 51
310.9132403682719
  0
ARC
  5
294
330
1F
100
AcDbEntity
  8
NoLayerName_003
  6
DOTSX
 62
     8
370
    25
100
AcDbCircle
 10
138.2086335484182
 20
226.7845298987602
 30
0.0
 40
13.1
100
AcDbArc
 50
274.0867596317281
 51
274.231577522606
  0
INSERT
  5
29D
330
1F
100
AcDbEntity
  8
NoLayerName_003
  6
Continuous
 62
     7
370
    25
100
AcDbBlockReference
  2
*X2
 10
138.8847961425781
 20
213.56640625
 30
0.0
  0
CIRCLE
  5
29E
330
1F
100
AcDbEntity
  8
NoLayerName_001
  6
DOTSX
 62
     8
370
    25
100
AcDbCircle
 10
138.2086335484182
 20
226.7845298987602
 30
0.0
 40
0.75
  0
LINE
  5
29F
330
1F
100
AcDbEntity
  8
NoLayerName_001
  6
DOTSX
 62
     7
370
    25
100
AcDbLine
 10
110.5683680405683
 20
98.37838599932464
 30
0.0
 11
111.0683680405683
 21
99.43051688912648
 31
0.0
  0
LINE
  5
2A0
330
1F
100
AcDbEntity
  8
NoLayerName_001
  6
DOTSX
 62
     7
370
    25
100
AcDbLine
 10
108.5683680405683
 20
98.37838599932464
 30
0.0
 11
108.0683680405683
 21
99.43051688912648
 31
0.0
  0
CIRCLE
  5
2A1
330
1F
100
AcDbEntity
  8
NoLayerName_003
  6
Continuous
 62
     3
370
    50
100
AcDbCircle
 10
109.5683680405683
 20
112.0919741512271
 30
0.0
 40
15.6
  0
LINE
  5
2A2
330
1F
100
AcDbEntity
  8
NoLayerName_003
  6
DOTSX
 62
     3
370
    25
100
AcDbLine
 10
103.8156945598485
 20
98.70254743369289
 30
0.0
 11
104.3443445351145
 21
99.2311974089589
 31
0.0
  0
LINE
  5
2A3
330
1F
100
AcDbEntity
  8
NoLayerName_003
  6
DOTSX
 62
     3
370
    25
100
AcDbLine
 10
122.4291447828365
 20
106.8679506457738
 30
0.0
 11
122.9577947581029
 21
106.3393006705075
 31
0.0
  0
LINE
  5
2A4
330
1F
100
AcDbEntity
  8
NoLayerName_003
  6
DOTSX
 62
     3
370
    25
100
AcDbLine
 10
115.321041521288
 20
98.70254743369277
 30
0.0
 11
114.7923915460219
 21
99.23119740895885
 31
0.0
  0
LINE
  5
2A5
330
1F
100
AcDbEntity
  8
NoLayerName_003
  6
DOTSX
 62
     3
370
    25
100
AcDbLine
 10
122.4291447828365
 20
117.3159976566806
 30
0.0
 11
122.9577947581027
 21
117.8446476319467
 31
0.0
  0
ARC
  5
2A6
330
1F
100
AcDbEntity
  8
NoLayerName_003
  6
DOTSX
 62
     3
370
    25
100
AcDbCircle
 10
109.5683680405683
 20
112.0919741512271
 30
0.0
 40
14.7
100
AcDbArc
 50
23.98448800565551
 51
66.01551199434357
  0
ARC
  5
2A7
330
1F
100
AcDbEntity
  8
NoLayerName_003
  6
DOTSX
 62
     3
370
    25
100
AcDbCircle
 10
122.8163734018654
 20
117.986068988184
 30
0.0
 40
0.2
100
AcDbArc
 50
315.0
 51
23.98448800565546
  0
ARC
  5
2A8
330
1F
100
AcDbEntity
  8
NoLayerName_003
  6
DOTSX
 62
     3
370
    25
100
AcDbCircle
 10
109.5683680405683
 20
112.0919741512271
 30
0.0
 40
14.7
100
AcDbArc
 50
113.9844880056555
 51
156.0155119943436
  0
ARC
  5
2A9
330
1F
100
AcDbEntity
  8
NoLayerName_003
  6
DOTSX
 62
     3
370
    25
100
AcDbCircle
 10
96.32036267927134
 20
117.9860689881842
 30
0.0
 40
0.2
100
AcDbArc
 50
156.0155119943436
 51
225.0
  0
ARC
  5
2AA
330
1F
100
AcDbEntity
  8
NoLayerName_003
  6
DOTSX
 62
     3
370
    25
100
AcDbCircle
 10
109.5683680405683
 20
112.0919741512271
 30
0.0
 40
14.7
100
AcDbArc
 50
203.9844880056555
 51
246.0155119943436
  0
ARC
  5
2AB
330
1F
100
AcDbEntity
  8
NoLayerName_003
  6
DOTSX
 62
     3
370
    25
100
AcDbCircle
 10
103.6742732036112
 20
98.84396878993006
 30
0.0
 40
0.2
100
AcDbArc
 50
246.0155119943436
 51
315.0
  0
ARC
  5
2AC
330
1F
100
AcDbEntity
  8
NoLayerName_003
  6
DOTSX
 62
     3
370
    25
100
AcDbCircle
 10
115.4624628775253
 20
98.84396878992995
 30
0.0
 40
0.2
100
AcDbArc
 50
225.0
 51
293.9844880056555
  0
ARC
  5
2AD
330
1F
100
AcDbEntity
  8
NoLayerName_003
  6
DOTSX
 62
     3
370
    25
100
AcDbCircle
 10
109.5683680405683
 20
112.0919741512271
 30
0.0
 40
14.7
100
AcDbArc
 50
293.9844880056555
 51
336.0155119943436
  0
ARC
  5
2AE
330
1F
100
AcDbEntity
  8
NoLayerName_003
  6
DOTSX
 62
     3
370
    25
100
AcDbCircle
 10
122.8163734018654
 20
106.1978793142701
 30
0.0
 40
0.2
100
AcDbArc
 50
336.0155119943436
 51
45.0
  0
LINE
  5
2AF
330
1F
100
AcDbEntity
  8
NoLayerName_003
  6
DOTSX
 62
     7
370
    25
100
AcDbLine
 10
95.32758154543393
 20
112.391974151227
 30
0.0
 11
94.17129039576827
 21
112.391974151227
 31
0.0
  0
LINE
  5
2B0
330
1F
100
AcDbEntity
  8
NoLayerName_003
  6
DOTSX
 62
     7
370
    25
100
AcDbLine
 10
95.38518202968794
 20
110.7043983935905
 30
0.0
 11
94.23997211895845
 21
110.6086405844354
 31
0.0
  0
LINE
  5
2B1
330
1F
100
AcDbEntity
  8
NoLayerName_003
  6
DOTSX
 62
     7
370
    25
100
AcDbLine
 10
109.2683680405683
 20
97.85118765609276
 30
0.0
 11
109.2683680405683
 21
96.69489650642707
 31
0.0
  0
LINE
  5
2B2
330
1F
100
AcDbEntity
  8
NoLayerName_003
  6
DOTSX
 62
     7
370
    25
100
AcDbLine
 10
110.9559437982049
 20
97.90878814034683
 30
0.0
 11
111.05170160736
 21
96.76357822961715
 31
0.0
  0
LINE
  5
2B3
330
1F
100
AcDbEntity
  8
NoLayerName_003
  6
DOTSX
 62
     7
370
    25
100
AcDbLine
 10
123.8091545357026
 20
111.7919741512271
 30
0.0
 11
124.9654456853683
 21
111.7919741512271
 31
0.0
  0
LINE
  5
2B4
330
1F
100
AcDbEntity
  8
NoLayerName_003
  6
DOTSX
 62
     7
370
    25
100
AcDbLine
 10
123.7515540514486
 20
113.4795499088637
 30
0.0
 11
124.8967639621784
 21
113.5753077180188
 31
0.0
  0
ARC
  5
2B5
330
1F
100
AcDbEntity
  8
NoLayerName_003
  6
DOTSX
 62
     7
370
    25
100
AcDbCircle
 10
109.5683680405683
 20
112.0919741512271
 30
0.0
 40
15.4
100
AcDbArc
 50
358.8837778441415
 51
5.527319489113202
  0
ARC
  5
2B6
330
1F
100
AcDbEntity
  8
NoLayerName_003
  6
DOTSX
 62
     7
370
    25
100
AcDbCircle
 10
109.5683680405683
 20
112.0919741512271
 30
0.0
 40
15.4
100
AcDbArc
 50
268.8837778441415
 51
275.5273194891119
  0
ARC
  5
2B7
330
1F
100
AcDbEntity
  8
NoLayerName_003
  6
DOTSX
 62
     3
370
    25
100
AcDbCircle
 10
109.5683680405683
 20
112.0919741512271
 30
0.0
 40
13.3
100
AcDbArc
 50
161.586759631728
 51
198.4132403682721
  0
LINE
  5
2B8
330
1F
100
AcDbEntity
  8
NoLayerName_003
  6
DOTSX
 62
     3
370
    25
100
AcDbLine
 10
96.70759129830009
 20
117.3159976566808
 30
0.0
 11
96.17894132303405
 21
117.8446476319468
 31
0.0
  0
ARC
  5
2B9
330
1F
100
AcDbEntity
  8
NoLayerName_003
  6
DOTSX
 62
     3
370
    25
100
AcDbCircle
 10
96.00048451711353
 20
116.6088908754944
 30
0.0
 40
1.0
100
AcDbArc
 50
341.5867596317279
 51
45.0
  0
ARC
  5
2BA
330
1F
100
AcDbEntity
  8
NoLayerName_003
  6
DOTSX
 62
     3
370
    25
100
AcDbCircle
 10
109.5683680405683
 20
112.0919741512271
 30
0.0
 40
13.3
100
AcDbArc
 50
341.5867596317299
 51
18.41324036827043
  0
ARC
  5
2BB
330
1F
100
AcDbEntity
  8
NoLayerName_003
  6
DOTSX
 62
     3
370
    25
100
AcDbCircle
 10
123.1362515640231
 20
116.6088908754939
 30
0.0
 40
1.0
100
AcDbArc
 50
135.0
 51
198.4132403682705
  0
ARC
  5
2BC
330
1F
100
AcDbEntity
  8
NoLayerName_003
  6
DOTSX
 62
     3
370
    25
100
AcDbCircle
 10
123.1362515640232
 20
107.5750574269603
 30
0.0
 40
1.0
100
AcDbArc
 50
161.5867596317299
 51
225.0
  0
ARC
  5
2BD
330
1F
100
AcDbEntity
  8
NoLayerName_003
  6
DOTSX
 62
     3
370
    25
100
AcDbCircle
 10
114.0852847648354
 20
98.52409062777225
 30
0.0
 40
1.0
100
AcDbArc
 50
45.00000000000001
 51
108.4132403682719
  0
ARC
  5
2BE
330
1F
100
AcDbEntity
  8
NoLayerName_003
  6
DOTSX
 62
     3
370
    25
100
AcDbCircle
 10
109.5683680405683
 20
112.0919741512271
 30
0.0
 40
13.3
100
AcDbArc
 50
251.5867596317281
 51
288.4132403682719
  0
ARC
  5
2BF
330
1F
100
AcDbEntity
  8
NoLayerName_003
  6
DOTSX
 62
     3
370
    25
100
AcDbCircle
 10
105.0514513163011
 20
98.52409062777225
 30
0.0
 40
1.0
100
AcDbArc
 50
71.58675963172811
 51
135.0
  0
ARC
  5
2C0
330
1F
100
AcDbEntity
  8
NoLayerName_003
  6
DOTSX
 62
     3
370
    25
100
AcDbCircle
 10
96.32036267927134
 20
106.1978793142699
 30
0.0
 40
0.2
100
AcDbArc
 50
135.0
 51
203.9844880056564
  0
LINE
  5
2C1
330
1F
100
AcDbEntity
  8
NoLayerName_003
  6
DOTSX
 62
     3
370
    25
100
AcDbLine
 10
96.70759129830009
 20
106.8679506457734
 30
0.0
 11
96.17894132303405
 21
106.3393006705073
 31
0.0
  0
ARC
  5
2C2
330
1F
100
AcDbEntity
  8
NoLayerName_003
  6
DOTSX
 62
     3
370
    25
100
AcDbCircle
 10
96.00048451711353
 20
107.5750574269598
 30
0.0
 40
1.0
100
AcDbArc
 50
315.0
 51
18.41324036827208
  0
LINE
  5
2C3
330
1F
100
AcDbEntity
  8
NoLayerName_003
  6
DOTSX
 62
     3
370
    25
100
AcDbLine
 10
114.7923915460221
 20
124.9527508934953
 30
0.0
 11
115.3210415212883
 21
125.4814008687615
 31
0.0
  0
LINE
  5
2C4
330
1F
100
AcDbEntity
  8
NoLayerName_003
  6
DOTSX
 62
     3
370
    25
100
AcDbLine
 10
104.3443445351144
 20
124.9527508934953
 30
0.0
 11
103.8156945598485
 21
125.4814008687612
 31
0.0
  0
ARC
  5
2C5
330
1F
100
AcDbEntity
  8
NoLayerName_003
  6
DOTSX
 62
     3
370
    25
100
AcDbCircle
 10
115.4624628775255
 20
125.339979512524
 30
0.0
 40
0.2
100
AcDbArc
 50
66.01551199434357
 51
135.0
  0
ARC
  5
2C6
330
1F
100
AcDbEntity
  8
NoLayerName_003
  6
DOTSX
 62
     3
370
    25
100
AcDbCircle
 10
103.6742732036114
 20
125.3399795125242
 30
0.0
 40
0.2
100
AcDbArc
 50
45.0
 51
113.9844880056555
  0
LINE
  5
2C7
330
1F
100
AcDbEntity
  8
NoLayerName_003
  6
DOTSX
 62
     7
370
    25
100
AcDbLine
 10
109.8683680405682
 20
126.3327606463614
 30
0.0
 11
109.8683680405682
 21
127.4890517960271
 31
0.0
  0
LINE
  5
2C8
330
1F
100
AcDbEntity
  8
NoLayerName_003
  6
DOTSX
 62
     7
370
    25
100
AcDbLine
 10
108.1807922829318
 20
126.2751601621074
 30
0.0
 11
108.0850344737767
 21
127.420370072837
 31
0.0
  0
ARC
  5
2C9
330
1F
100
AcDbEntity
  8
NoLayerName_003
  6
DOTSX
 62
     7
370
    25
100
AcDbCircle
 10
109.5683680405683
 20
112.0919741512271
 30
0.0
 40
15.4
100
AcDbArc
 50
88.88377784414162
 51
95.52731948911182
  0
ARC
  5
2CA
330
1F
100
AcDbEntity
  8
NoLayerName_003
  6
DOTSX
 62
     7
370
    25
100
AcDbCircle
 10
109.5683680405683
 20
112.0919741512271
 30
0.0
 40
15.4
100
AcDbArc
 50
178.8837778441415
 51
185.5273194891119
  0
ARC
  5
2CB
330
1F
100
AcDbEntity
  8
NoLayerName_003
  6
DOTSX
 62
     3
370
    25
100
AcDbCircle
 10
109.5683680405683
 20
112.0919741512271
 30
0.0
 40
13.3
100
AcDbArc
 50
71.58675963172809
 51
108.4132403682719
  0
ARC
  5
2CC
330
1F
100
AcDbEntity
  8
NoLayerName_003
  6
DOTSX
 62
     3
370
    25
100
AcDbCircle
 10
105.0514513163011
 20
125.6598576746819
 30
0.0
 40
1.0
100
AcDbArc
 50
225.0
 51
288.4132403682719
  0
ARC
  5
2CD
330
1F
100
AcDbEntity
  8
NoLayerName_003
  6
DOTSX
 62
     3
370
    25
100
AcDbCircle
 10
114.0852847648354
 20
125.6598576746819
 30
0.0
 40
1.0
100
AcDbArc
 50
251.5867596317281
 51
315.0
  0
ARC
  5
2CE
330
1F
100
AcDbEntity
  8
NoLayerName_003
  6
DOTSX
 62
     8
370
    25
100
AcDbCircle
 10
109.5683680405683
 20
112.0919741512271
 30
0.0
 40
14.5
100
AcDbArc
 50
23.98448800565551
 51
66.01551199434357
  0
LINE
  5
2CF
330
1F
100
AcDbEntity
  8
NoLayerName_003
  6
DOTSX
 62
     8
370
    25
100
AcDbLine
 10
114.9338129022594
 20
124.811329537258
 30
0.0
 11
115.4624628775256
 21
125.3399795125242
 31
0.0
  0
ARC
  5
2D0
330
1F
100
AcDbEntity
  8
NoLayerName_003
  6
DOTSX
 62
     8
370
    25
100
AcDbCircle
 10
114.0852847648354
 20
125.6598576746819
 30
0.0
 40
1.2
100
AcDbArc
 50
251.5867707635745
 51
314.9999999999962
  0
ARC
  5
2D1
330
1F
100
AcDbEntity
  8
NoLayerName_003
  6
DOTSX
 62
     8
370
    25
100
AcDbCircle
 10
109.5683680405683
 20
112.0919741512271
 30
0.0
 40
13.1
100
AcDbArc
 50
71.58675963172809
 51
108.4132403682717
  0
ARC
  5
2D2
330
1F
100
AcDbEntity
  8
NoLayerName_003
  6
DOTSX
 62
     8
370
    25
100
AcDbCircle
 10
114.0852847648354
 20
98.52409062777225
 30
0.0
 40
1.2
100
AcDbArc
 50
44.99999999999755
 51
108.4132403682719
  0
LINE
  5
2D3
330
1F
100
AcDbEntity
  8
NoLayerName_003
  6
DOTSX
 62
     8
370
    25
100
AcDbLine
 10
115.4624628775253
 20
98.84396878993017
 30
0.0
 11
114.9338129022592
 21
99.37261876519624
 31
0.0
  0
ARC
  5
2D4
330
1F
100
AcDbEntity
  8
NoLayerName_003
  6
DOTSX
 62
     8
370
    25
100
AcDbCircle
 10
109.5683680405683
 20
112.0919741512271
 30
0.0
 40
14.5
100
AcDbArc
 50
293.9844880056555
 51
336.0155119943436
  0
LINE
  5
2D5
330
1F
100
AcDbEntity
  8
NoLayerName_003
  6
DOTSX
 62
     8
370
    25
100
AcDbLine
 10
122.2877234265993
 20
106.7265292895365
 30
0.0
 11
122.8163734018656
 21
106.1978793142702
 31
0.0
  0
ARC
  5
2D6
330
1F
100
AcDbEntity
  8
NoLayerName_003
  6
DOTSX
 62
     8
370
    25
100
AcDbCircle
 10
123.1362515640232
 20
107.5750574269603
 30
0.0
 40
1.2
100
AcDbArc
 50
161.5867596317299
 51
224.9999999999986
  0
ARC
  5
2D7
330
1F
100
AcDbEntity
  8
NoLayerName_003
  6
DOTSX
 62
     8
370
    25
100
AcDbCircle
 10
109.5683680405683
 20
112.0919741512271
 30
0.0
 40
13.1
100
AcDbArc
 50
341.5867596317299
 51
18.41324036827064
  0
ARC
  5
2D8
330
1F
100
AcDbEntity
  8
NoLayerName_003
  6
DOTSX
 62
     8
370
    25
100
AcDbCircle
 10
123.1362515640231
 20
116.6088908754939
 30
0.0
 40
1.2
100
AcDbArc
 50
135.0000110661712
 51
198.4132403682704
  0
LINE
  5
2D9
330
1F
100
AcDbEntity
  8
NoLayerName_003
  6
DOTSX
 62
     8
370
    25
100
AcDbLine
 10
122.2877234265993
 20
117.4574190129179
 30
0.0
 11
122.8163734018654
 21
117.986068988184
 31
0.0
  0
ARC
  5
2DA
330
1F
100
AcDbEntity
  8
NoLayerName_003
  6
DOTSX
 62
     8
370
    25
100
AcDbCircle
 10
109.5683680405683
 20
112.0919741512271
 30
0.0
 40
14.5
100
AcDbArc
 50
113.9844880056555
 51
156.0155119943436
  0
LINE
  5
2DB
330
1F
100
AcDbEntity
  8
NoLayerName_003
  6
DOTSX
 62
     8
370
    25
100
AcDbLine
 10
96.84901265453738
 20
117.4574190129182
 30
0.0
 11
96.32036267927134
 21
117.9860689881842
 31
0.0
  0
ARC
  5
2DC
330
1F
100
AcDbEntity
  8
NoLayerName_003
  6
DOTSX
 62
     8
370
    25
100
AcDbCircle
 10
96.00048451711353
 20
116.6088908754944
 30
0.0
 40
1.2
100
AcDbArc
 50
341.5867608391462
 51
45.00000000000056
  0
ARC
  5
2DD
330
1F
100
AcDbEntity
  8
NoLayerName_003
  6
DOTSX
 62
     8
370
    25
100
AcDbCircle
 10
109.5683680405683
 20
112.0919741512271
 30
0.0
 40
13.1
100
AcDbArc
 50
161.5867564371995
 51
198.4132403682723
  0
ARC
  5
2DE
330
1F
100
AcDbEntity
  8
NoLayerName_003
  6
DOTSX
 62
     8
370
    25
100
AcDbCircle
 10
96.00048451711353
 20
107.5750574269598
 30
0.0
 40
1.2
100
AcDbArc
 50
314.9999999999993
 51
18.41323951449843
  0
LINE
  5
2DF
330
1F
100
AcDbEntity
  8
NoLayerName_003
  6
DOTSX
 62
     8
370
    25
100
AcDbLine
 10
96.84901265453738
 20
106.726529289536
 30
0.0
 11
96.32036267927134
 21
106.1978793142699
 31
0.0
  0
ARC
  5
2E0
330
1F
100
AcDbEntity
  8
NoLayerName_003
  6
DOTSX
 62
     8
370
    25
100
AcDbCircle
 10
109.5683680405683
 20
112.0919741512271
 30
0.0
 40
14.5
100
AcDbArc
 50
203.9844880056555
 51
246.0155119943436
  0
ARC
  5
2E1
330
1F
100
AcDbEntity
  8
NoLayerName_003
  6
DOTSX
 62
     8
370
    25
100
AcDbCircle
 10
105.0514513163011
 20
125.6598576746819
 30
0.0
 40
1.2
100
AcDbArc
 50
225.0
 51
288.4132403682715
  0
LINE
  5
2E2
330
1F
100
AcDbEntity
  8
NoLayerName_003
  6
DOTSX
 62
     8
370
    25
100
AcDbLine
 10
104.2029231788773
 20
99.37261876519621
 30
0.0
 11
103.6742732036112
 21
98.8439687899302
 31
0.0
  0
LINE
  5
2E3
330
1F
100
AcDbEntity
  8
NoLayerName_003
  6
DOTSX
 62
     8
370
    25
100
AcDbLine
 10
104.2029231788772
 20
124.811329537258
 30
0.0
 11
103.6742732036112
 21
125.339979512524
 31
0.0
  0
ARC
  5
2E4
330
1F
100
AcDbEntity
  8
NoLayerName_003
  6
DOTSX
 62
     8
370
    25
100
AcDbCircle
 10
105.0514513163011
 20
98.52409062777225
 30
0.0
 40
1.2
100
AcDbArc
 50
71.58675963172962
 51
134.999999999999
  0
ARC
  5
2E5
330
1F
100
AcDbEntity
  8
NoLayerName_003
  6
DOTSX
 62
     7
370
    25
100
AcDbCircle
 10
95.32758154543393
 20
113.391974151227
 30
0.0
 40
1.0
100
AcDbArc
 50
270.0
 51
354.784091429546
  0
ARC
  5
2E6
330
1F
100
AcDbEntity
  8
NoLayerName_003
  6
DOTSX
 62
     7
370
    25
100
AcDbCircle
 10
95.46850719307531
 20
109.7078759818272
 30
0.0
 40
1.0
100
AcDbArc
 50
9.597176177936104
 51
94.77972211006455
  0
ARC
  5
2E7
330
1F
100
AcDbEntity
  8
NoLayerName_003
  6
DOTSX
 62
     7
370
    25
100
AcDbCircle
 10
108.2683680405683
 20
97.85118765609276
 30
0.0
 40
1.0
100
AcDbArc
 50
0.0
 51
84.78409142954605
  0
ARC
  5
2E8
330
1F
100
AcDbEntity
  8
NoLayerName_003
  6
DOTSX
 62
     7
370
    25
100
AcDbCircle
 10
111.9524662099682
 20
97.9921133037342
 30
0.0
 40
1.0
100
AcDbArc
 50
99.5971761779364
 51
184.7797221100646
  0
ARC
  5
2E9
330
1F
100
AcDbEntity
  8
NoLayerName_003
  6
DOTSX
 62
     7
370
    25
100
AcDbCircle
 10
123.8091545357026
 20
110.7919741512271
 30
0.0
 40
1.0
100
AcDbArc
 50
89.99999999999999
 51
174.7840914295461
  0
ARC
  5
2EA
330
1F
100
AcDbEntity
  8
NoLayerName_003
  6
DOTSX
 62
     7
370
    25
100
AcDbCircle
 10
123.6682288880612
 20
114.4760723206268
 30
0.0
 40
1.0
100
AcDbArc
 50
189.5971761779359
 51
274.7797221100645
  0
ARC
  5
2EB
330
1F
100
AcDbEntity
  8
NoLayerName_003
  6
DOTSX
 62
     7
370
    25
100
AcDbCircle
 10
107.1842698711686
 20
126.19183499872
 30
0.0
 40
1.0
100
AcDbArc
 50
279.5971761779355
 51
4.779722110064573
  0
ARC
  5
2EC
330
1F
100
AcDbEntity
  8
NoLayerName_003
  6
DOTSX
 62
     7
370
    25
100
AcDbCircle
 10
110.8683680405682
 20
126.3327606463614
 30
0.0
 40
1.0
100
AcDbArc
 50
180.0
 51
264.784091429546
  0
ARC
  5
2ED
330
1F
100
AcDbEntity
  8
NoLayerName_003
  6
DOTSX
 62
     8
370
    25
100
AcDbCircle
 10
109.5683680405683
 20
112.0919741512271
 30
0.0
 40
13.37965
100
AcDbArc
 50
118.8632594849701
 51
151.1367405150301
  0
LINE
  5
2EE
330
1F
100
AcDbEntity
  8
NoLayerName_003
  6
DOTSX
 62
     8
370
    25
100
AcDbLine
 10
103.7046452111679
 20
123.7251933403625
 30
0.0
 11
104.2443124786654
 21
123.185526072865
 31
0.0
  0
LINE
  5
2EF
330
1F
100
AcDbEntity
  8
NoLayerName_003
  6
DOTSX
 62
     8
370
    25
100
AcDbLine
 10
114.8924236024711
 20
123.1855260728651
 30
0.0
 11
115.4320908699686
 21
123.7251933403626
 31
0.0
  0
ARC
  5
2F0
330
1F
100
AcDbEntity
  8
NoLayerName_003
  6
DOTSX
 62
     8
370
    25
100
AcDbCircle
 10
109.5683680405683
 20
112.0919741512271
 30
0.0
 40
11.9796679388638
100
AcDbArc
 50
66.5288024294172
 51
113.4711975705828
  0
ARC
  5
2F1
330
1F
100
AcDbEntity
  8
NoLayerName_003
  6
DOTSX
 62
     8
370
    25
100
AcDbCircle
 10
109.5683680405683
 20
112.0919741512271
 30
0.0
 40
13.37965
100
AcDbArc
 50
28.86325948496994
 51
61.13674051502993
  0
LINE
  5
2F2
330
1F
100
AcDbEntity
  8
NoLayerName_003
  6
DOTSX
 62
     8
370
    25
100
AcDbLine
 10
121.2015872297037
 20
117.9556969806274
 30
0.0
 11
120.6619199622062
 21
117.4160297131299
 31
0.0
  0
LINE
  5
2F3
330
1F
100
AcDbEntity
  8
NoLayerName_003
  6
DOTSX
 62
     8
370
    25
100
AcDbLine
 10
120.6619199622062
 20
106.7679185893242
 30
0.0
 11
121.2015872297037
 21
106.2282513218266
 31
0.0
  0
ARC
  5
2F4
330
1F
100
AcDbEntity
  8
NoLayerName_003
  6
DOTSX
 62
     8
370
    25
100
AcDbCircle
 10
109.5683680405683
 20
112.0919741512271
 30
0.0
 40
11.9796679388638
100
AcDbArc
 50
336.5288024294173
 51
23.4711975705828
  0
ARC
  5
2F5
330
1F
100
AcDbEntity
  8
NoLayerName_003
  6
DOTSX
 62
     8
370
    25
100
AcDbCircle
 10
109.5683680405683
 20
112.0919741512271
 30
0.0
 40
13.37965
100
AcDbArc
 50
298.8632594849701
 51
331.1367405150301
  0
LINE
  5
2F6
330
1F
100
AcDbEntity
  8
NoLayerName_003
  6
DOTSX
 62
     8
370
    25
100
AcDbLine
 10
115.4320908699686
 20
100.4587549620917
 30
0.0
 11
114.8924236024711
 21
100.9984222295892
 31
0.0
  0
LINE
  5
2F7
330
1F
100
AcDbEntity
  8
NoLayerName_003
  6
DOTSX
 62
     8
370
    25
100
AcDbLine
 10
104.2443124786654
 20
100.9984222295891
 30
0.0
 11
103.7046452111679
 21
100.4587549620916
 31
0.0
  0
ARC
  5
2F8
330
1F
100
AcDbEntity
  8
NoLayerName_003
  6
DOTSX
 62
     8
370
    25
100
AcDbCircle
 10
109.5683680405683
 20
112.0919741512271
 30
0.0
 40
11.9796679388638
100
AcDbArc
 50
246.5288024294172
 51
293.4711975705828
  0
ARC
  5
2F9
330
1F
100
AcDbEntity
  8
NoLayerName_003
  6
DOTSX
 62
     8
370
    25
100
AcDbCircle
 10
109.5683680405683
 20
112.0919741512271
 30
0.0
 40
13.37965
100
AcDbArc
 50
208.8632594849699
 51
241.1367405150299
  0
LINE
  5
2FA
330
1F
100
AcDbEntity
  8
NoLayerName_003
  6
DOTSX
 62
     8
370
    25
100
AcDbLine
 10
97.93514885143281
 20
106.2282513218268
 30
0.0
 11
98.47481611893032
 21
106.7679185893243
 31
0.0
  0
LINE
  5
2FB
330
1F
100
AcDbEntity
  8
NoLayerName_003
  6
DOTSX
 62
     8
370
    25
100
AcDbLine
 10
98.47481611893033
 20
117.41602971313
 30
0.0
 11
97.93514885143281
 21
117.9556969806275
 31
0.0
  0
ARC
  5
2FC
330
1F
100
AcDbEntity
  8
NoLayerName_003
  6
DOTSX
 62
     8
370
    25
100
AcDbCircle
 10
109.5683680405683
 20
112.0919741512271
 30
0.0
 40
11.9796679388638
100
AcDbArc
 50
156.5288024294173
 51
203.4711975705828
  0
ARC
  5
2FD
330
1F
100
AcDbEntity
  8
NoLayerName_003
  6
DOTSX
 62
     8
370
    25
100
AcDbCircle
 10
115.7856442605619
 20
123.3716399497693
 30
0.0
 40
0.5
100
AcDbArc
 50
61.13674051502992
 51
135.0
  0
ARC
  5
2FE
330
1F
100
AcDbEntity
  8
NoLayerName_003
  6
DOTSX
 62
     8
370
    25
100
AcDbCircle
 10
114.5388702118778
 20
123.5390794634583
 30
0.0
 40
0.5
100
AcDbArc
 50
246.5288024294172
 51
315.0
  0
ARC
  5
2FF
330
1F
100
AcDbEntity
  8
NoLayerName_003
  6
DOTSX
 62
     8
370
    25
100
AcDbCircle
 10
104.5978658692587
 20
123.5390794634583
 30
0.0
 40
0.5
100
AcDbArc
 50
225.0
 51
293.4711975705828
  0
ARC
  5
300
330
1F
100
AcDbEntity
  8
NoLayerName_003
  6
DOTSX
 62
     8
370
    25
100
AcDbCircle
 10
103.3510918205746
 20
123.3716399497693
 30
0.0
 40
0.5
100
AcDbArc
 50
45.0
 51
118.8632594849701
  0
ARC
  5
301
330
1F
100
AcDbEntity
  8
NoLayerName_003
  6
DOTSX
 62
     8
370
    25
100
AcDbCircle
 10
98.28870224202609
 20
118.3092503712208
 30
0.0
 40
0.5
100
AcDbArc
 50
151.1367405150301
 51
225.0
  0
ARC
  5
302
330
1F
100
AcDbEntity
  8
NoLayerName_003
  6
DOTSX
 62
     8
370
    25
100
AcDbCircle
 10
98.12126272833706
 20
117.0624763225367
 30
0.0
 40
0.5
100
AcDbArc
 50
336.5288024294173
 51
45.0
  0
ARC
  5
303
330
1F
100
AcDbEntity
  8
NoLayerName_003
  6
DOTSX
 62
     8
370
    25
100
AcDbCircle
 10
98.12126272833706
 20
107.1214719799175
 30
0.0
 40
0.5
100
AcDbArc
 50
315.0
 51
23.4711975705828
  0
ARC
  5
304
330
1F
100
AcDbEntity
  8
NoLayerName_003
  6
DOTSX
 62
     8
370
    25
100
AcDbCircle
 10
98.28870224202609
 20
105.8746979312334
 30
0.0
 40
0.5
100
AcDbArc
 50
135.0
 51
208.8632594849699
  0
ARC
  5
305
330
1F
100
AcDbEntity
  8
NoLayerName_003
  6
DOTSX
 62
     8
370
    25
100
AcDbCircle
 10
103.3510918205746
 20
100.8123083526849
 30
0.0
 40
0.5
100
AcDbArc
 50
241.1367405150299
 51
315.0
  0
ARC
  5
306
330
1F
100
AcDbEntity
  8
NoLayerName_003
  6
DOTSX
 62
     8
370
    25
100
AcDbCircle
 10
104.5978658692587
 20
100.6448688389959
 30
0.0
 40
0.5
100
AcDbArc
 50
66.5288024294172
 51
135.0
  0
ARC
  5
307
330
1F
100
AcDbEntity
  8
NoLayerName_003
  6
DOTSX
 62
     8
370
    25
100
AcDbCircle
 10
114.5388702118778
 20
100.6448688389959
 30
0.0
 40
0.5
100
AcDbArc
 50
45.0
 51
113.4711975705828
  0
ARC
  5
308
330
1F
100
AcDbEntity
  8
NoLayerName_003
  6
DOTSX
 62
     8
370
    25
100
AcDbCircle
 10
115.7856442605619
 20
100.8123083526849
 30
0.0
 40
0.5
100
AcDbArc
 50
225.0
 51
298.8632594849701
  0
ARC
  5
309
330
1F
100
AcDbEntity
  8
NoLayerName_003
  6
DOTSX
 62
     8
370
    25
100
AcDbCircle
 10
120.8480338391104
 20
105.8746979312334
 30
0.0
 40
0.5
100
AcDbArc
 50
331.1367405150301
 51
45.0
  0
ARC
  5
30A
330
1F
100
AcDbEntity
  8
NoLayerName_003
  6
DOTSX
 62
     8
370
    25
100
AcDbCircle
 10
121.0154733527995
 20
107.1214719799175
 30
0.0
 40
0.5
100
AcDbArc
 50
156.5288024294173
 51
225.0
  0
ARC
  5
30B
330
1F
100
AcDbEntity
  8
NoLayerName_003
  6
DOTSX
 62
     8
370
    25
100
AcDbCircle
 10
121.0154733527995
 20
117.0624763225367
 30
0.0
 40
0.5
100
AcDbArc
 50
135.0
 51
203.4711975705828
  0
ARC
  5
30C
330
1F
100
AcDbEntity
  8
NoLayerName_003
  6
DOTSX
 62
     8
370
    25
100
AcDbCircle
 10
120.8480338391104
 20
118.3092503712208
 30
0.0
 40
0.5
100
AcDbArc
 50
315.0
 51
28.86325948496993
  0
LINE
  5
30D
330
1F
100
AcDbEntity
  8
NoLayerName_003
  6
Continuous
 62
     8
370
    25
100
AcDbLine
 10
105.3316685707583
 20
100.8864923888059
 30
0.0
 11
105.4849159227272
 21
99.43435119897812
 31
0.0
  0
LINE
  5
30E
330
1F
100
AcDbEntity
  8
NoLayerName_003
  6
Continuous
 62
     8
370
    25
100
AcDbLine
 10
108.0484966043311
 20
100.2091110811268
 30
0.0
 11
107.2314482300239
 21
98.99889178689872
 31
0.0
  0
ARC
  5
30F
330
1F
100
AcDbEntity
  8
NoLayerName_003
  6
DOTSX
 62
     8
370
    25
100
AcDbCircle
 10
109.5683680405683
 20
112.0919741512271
 30
0.0
 40
13.1
100
AcDbArc
 50
260.2684224773944
 51
288.4132403682719
  0
ARC
  5
310
330
1F
100
AcDbEntity
  8
NoLayerName_003
  6
Continuous
 62
     8
370
    25
100
AcDbCircle
 10
109.5683680405683
 20
112.0919741512271
 30
0.0
 40
13.1
100
AcDbArc
 50
251.5867596317281
 51
251.731577522606
  0
INSERT
  5
319
330
1F
100
AcDbEntity
  8
NoLayerName_003
  6
Continuous
 62
     7
370
    25
100
AcDbBlockReference
  2
*X3
 10
105.3980865478516
 20
99.04039764404297
 30
0.0
  0
CIRCLE
  5
31A
330
1F
100
AcDbEntity
  8
NoLayerName_001
  6
Continuous
 62
     8
370
    25
100
AcDbCircle
 10
109.5683680405683
 20
112.0919741512271
 30
0.0
 40
0.75
  0
LINE
  5
31B
330
1F
100
AcDbEntity
  8
NoLayerName_001
  6
CENTER
 62
    30
370
    25
100
AcDbLine
 10
109.5683680405683
 20
111.0099180449802
 30
0.0
 11
109.5683680405683
 21
113.4530379470105
 31
0.0
  0
LINE
  5
31C
330
1F
100
AcDbEntity
  8
NoLayerName_002
  6
CENTER
 62
    30
370
    25
100
AcDbLine
 10
110.3183680405683
 20
112.0919741512271
 30
0.0
 11
108.8183680405683
 21
112.0919741512271
 31
0.0
  0
ELLIPSE
  5
31D
330
1F
100
AcDbEntity
  8
NoLayerName_001
  6
Continuous
 62
     4
370
    50
100
AcDbEllipse
 10
145.6308138810824
 20
112.0919741512271
 30
0.0
 11
9.552245033349370E-16
 21
15.60000000000002
 31
0.0
210
0.0
220
0.0
230
1.0
 40
0.7071067811865441
 41
0.0
 42
6.283185307179586
  0
ELLIPSE
  5
31E
330
1F
100
AcDbEntity
  8
NoLayerName_001
  6
DOTSX
 62
     4
370
    25
100
AcDbEllipse
 10
145.2774917894941
 20
112.0919741512271
 30
0.0
 11
-2.443170364298961E-15
 21
-13.29999999999995
 31
0.0
210
0.0
220
0.0
230
1.0
 40
0.7071067811865488
 41
4.345080080692711
 42
5.0796978800767
  0
ELLIPSE
  5
31F
330
1F
100
AcDbEntity
  8
NoLayerName_001
  6
DOTSX
 62
     4
370
    25
100
AcDbEllipse
 10
145.2774917894941
 20
112.0919741512271
 30
0.0
 11
-2.443170364298961E-15
 21
-13.29999999999995
 31
0.0
210
0.0
220
0.0
230
1.0
 40
0.7071067811865488
 41
1.203487427102915
 42
1.938105226486897
  0
ELLIPSE
  5
320
330
1F
100
AcDbEntity
  8
NoLayerName_001
  6
DOTSX
 62
     4
370
    25
100
AcDbEllipse
 10
143.8568211653832
 20
112.0919741512271
 30
0.0
 11
-2.268639526947034E-15
 21
-12.34989837356397
 31
0.0
210
0.0
220
0.0
230
1.0
 40
0.7071125999179947
 41
1.135542474947132
 42
2.006050178642664
  0
LINE
  5
321
330
1F
100
AcDbEntity
  8
NoLayerName_001
  6
DOTSX
 62
     4
370
    25
100
AcDbLine
 10
154.8136091085577
 20
106.2426209430414
 30
0.0
 11
154.0547033211096
 21
107.3158758002139
 31
0.0
  0
LINE
  5
322
330
1F
100
AcDbEntity
  8
NoLayerName_001
  6
DOTSX
 62
     4
370
    25
100
AcDbLine
 10
149.4136091085576
 20
98.60586770622649
 30
0.0
 11
148.6547033211095
 21
99.67912256339898
 31
0.0
  0
ELLIPSE
  5
323
330
1F
100
AcDbEntity
  8
NoLayerName_001
  6
DOTSX
 62
     4
370
    25
100
AcDbEllipse
 10
145.2774917894941
 20
112.0919741512271
 30
0.0
 11
-2.443170364298961E-15
 21
-13.29999999999995
 31
0.0
210
0.0
220
0.0
230
1.0
 40
0.7071067811865488
 41
5.915876407487578
 42
6.650494206871597
  0
ELLIPSE
  5
324
330
1F
100
AcDbEntity
  8
NoLayerName_001
  6
DOTSX
 62
     4
370
    25
100
AcDbEllipse
 10
145.2774917894941
 20
112.0919741512271
 30
0.0
 11
-2.700346192119922E-15
 21
-14.70000000000005
 31
0.0
210
0.0
220
0.0
230
1.0
 40
0.7071067811865418
 41
0.4092432516330937
 42
1.16155307516184
  0
LINE
  5
325
330
1F
100
AcDbEntity
  8
NoLayerName_001
  6
DOTSX
 62
     4
370
    25
100
AcDbLine
 10
148.2187792055429
 20
99.93192896270648
 30
0.0
 11
147.5388458449682
 21
100.8934999427411
 31
0.0
  0
LINE
  5
326
330
1F
100
AcDbEntity
  8
NoLayerName_001
  6
DOTSX
 62
     4
370
    25
100
AcDbLine
 10
152.3395458744358
 20
106.0868947914321
 30
0.0
 11
151.7753730787975
 21
106.8847556105457
 31
0.0
  0
SPLINE
  5
327
330
1F
100
AcDbEntity
  8
NoLayerName_001
  6
DOTSX
 62
     4
370
    25
100
AcDbSpline
210
0.0
220
0.0
230
1.0
 70
     8
 71
     3
 72
    11
 73
     7
 74
     5
 42
0.000000001
 43
0.0000000001
 44
0.0
 12
-0.3730678352364513
 22
-0.927804068924031
 32
0.0
 13
-0.7672738868052812
 23
-0.6413195635770956
 33
0.0
 40
0.0
 40
0.0
 40
0.0
 40
0.0
 40
1.994873298994747
 40
4.300436710715888
 40
6.4359743126798
 40
7.51197464570097
 40
7.51197464570097
 40
7.51197464570097
 40
7.51197464570097
 10
152.3395458424485
 20
106.0868948217014
 30
0.0
 10
152.0914714880395
 20
105.4699443004364
 30
0.0
 10
151.6202534821921
 20
104.1104821883632
 30
0.0
 10
150.5048689955339
 20
102.266114901833
 30
0.0
 10
149.344746832528
 20
100.8168859039664
 30
0.0
 10
148.493978091144
 20
100.1619514809687
 30
0.0
 10
148.2187824385703
 20
99.93193145964142
 30
0.0
 11
152.3395458424485
 21
106.0868948217014
 31
0.0
 11
151.5953227792215
 21
104.2360432579062
 31
0.0
 11
150.4311494135019
 21
102.2459872235152
 31
0.0
 11
149.0443693962912
 21
100.6219915236234
 31
0.0
 11
148.2187824385703
 21
99.93193145964142
 31
0.0
  0
ELLIPSE
  5
328
330
1F
100
AcDbEntity
  8
NoLayerName_001
  6
DOTSX
 62
     4
370
    25
100
AcDbEllipse
 10
143.8568211653832
 20
112.0919741512271
 30
0.0
 11
-2.268639526947034E-15
 21
-12.34989837356397
 31
0.0
210
0.0
220
0.0
230
1.0
 40
0.7071125999179947
 41
5.847939684226899
 42
6.718430930132293
  0
LINE
  5
329
330
1F
100
AcDbEntity
  8
NoLayerName_001
  6
DOTSX
 62
     4
370
    25
100
AcDbLine
 10
148.6547033211095
 20
99.679122563399
 30
0.0
 11
147.6696622078903
 21
99.679122563399
 31
0.0
  0
LINE
  5
32A
330
1F
100
AcDbEntity
  8
NoLayerName_001
  6
DOTSX
 62
     4
370
    25
100
AcDbLine
 10
154.0547033211096
 20
107.3158758002139
 30
0.0
 11
151.9101127010786
 21
107.3158758002139
 31
0.0
  0
LINE
  5
32B
330
1F
100
AcDbEntity
  8
NoLayerName_001
  6
DOTSX
 62
     4
370
    25
100
AcDbLine
 10
154.8136091085577
 20
106.2426209430414
 30
0.0
 11
152.2294308566247
 21
106.2426209430414
 31
0.0
  0
LINE
  5
32C
330
1F
100
AcDbEntity
  8
NoLayerName_001
  6
DOTSX
 62
     4
370
    25
100
AcDbLine
 10
148.2187780907509
 20
99.93193053926029
 30
0.0
 11
147.6696622078903
 21
99.679122563399
 31
0.0
  0
LINE
  5
32D
330
1F
100
AcDbEntity
  8
NoLayerName_001
  6
DOTSX
 62
     4
370
    25
100
AcDbLine
 10
135.7413744704305
 20
106.2426209430414
 30
0.0
 11
136.5002802578786
 21
107.3158758002139
 31
0.0
  0
LINE
  5
32E
330
1F
100
AcDbEntity
  8
NoLayerName_001
  6
DOTSX
 62
     4
370
    25
100
AcDbLine
 10
141.1413744704306
 20
98.60586770622649
 30
0.0
 11
141.9002802578787
 21
99.67912256339898
 31
0.0
  0
ELLIPSE
  5
32F
330
1F
100
AcDbEntity
  8
NoLayerName_001
  6
DOTSX
 62
     4
370
    25
100
AcDbEllipse
 10
145.2774917894941
 20
112.0919741512271
 30
0.0
 11
-2.700346192119922E-15
 21
-14.70000000000005
 31
0.0
210
0.0
220
0.0
230
1.0
 40
0.7071067811865418
 41
5.121632232017761
 42
5.873942055546496
  0
LINE
  5
330
330
1F
100
AcDbEntity
  8
NoLayerName_001
  6
DOTSX
 62
     4
370
    25
100
AcDbLine
 10
139.494863125225
 20
99.93192896270875
 30
0.0
 11
140.1747964857981
 21
100.8934999427411
 31
0.0
  0
SPLINE
  5
331
330
1F
100
AcDbEntity
  8
NoLayerName_001
  6
DOTSX
 62
     4
370
    25
100
AcDbSpline
210
0.0
220
0.0
230
1.0
 70
    24
 71
     3
 72
     8
 73
     4
 74
     2
 42
0.000000001
 43
0.0000000001
 44
0.0
 12
-0.7839601014957588
 22
0.6208112106452006
 32
0.0
 13
-0.7839601014957588
 23
0.6208112106452006
 33
0.0
 40
0.0
 40
0.0
 40
0.0
 40
0.0
 40
0.3696819898193347
 40
0.3696819898193347
 40
0.3696819898193347
 40
0.3696819898193347
 10
139.4948631248647
 20
99.93192896299274
 30
0.0
 10
139.398257814778
 20
100.0084298708772
 30
0.0
 10
139.3016525046914
 20
100.0849307787617
 30
0.0
 10
139.2050471946047
 20
100.1614316866462
 30
0.0
 11
139.4948631248647
 21
99.93192896299274
 31
0.0
 11
139.2050471946047
 21
100.1614316866462
 31
0.0
  0
LINE
  5
332
330
1F
100
AcDbEntity
  8
NoLayerName_001
  6
DOTSX
 62
     4
370
    25
100
AcDbLine
 10
141.9002802578786
 20
99.679122563399
 30
0.0
 11
139.7092283502092
 21
99.679122563399
 31
0.0
  0
LINE
  5
333
330
1F
100
AcDbEntity
  8
NoLayerName_001
  6
DOTSX
 62
     4
370
    25
100
AcDbLine
 10
135.7413744704305
 20
117.9413273594128
 30
0.0
 11
136.5002802578786
 21
116.8680725022403
 31
0.0
  0
LINE
  5
334
330
1F
100
AcDbEntity
  8
NoLayerName_001
  6
DOTSX
 62
     4
370
    25
100
AcDbLine
 10
141.1413744704306
 20
125.5780805962277
 30
0.0
 11
141.9002802578787
 21
124.5048257390552
 31
0.0
  0
ELLIPSE
  5
335
330
1F
100
AcDbEntity
  8
NoLayerName_001
  6
DOTSX
 62
     4
370
    25
100
AcDbEllipse
 10
145.2774917894941
 20
112.0919741512271
 30
0.0
 11
-2.443170364298961E-15
 21
-13.29999999999995
 31
0.0
210
0.0
220
0.0
230
1.0
 40
0.7071067811865488
 41
2.774283753897794
 42
3.508901553281812
  0
ELLIPSE
  5
336
330
1F
100
AcDbEntity
  8
NoLayerName_001
  6
DOTSX
 62
     4
370
    25
100
AcDbEllipse
 10
145.2774917894941
 20
112.0919741512271
 30
0.0
 11
-2.700346192119922E-15
 21
-14.70000000000005
 31
0.0
210
0.0
220
0.0
230
1.0
 40
0.7071067811865418
 41
3.550835905222896
 42
4.303145728751637
  0
LINE
  5
337
330
1F
100
AcDbEntity
  8
NoLayerName_001
  6
DOTSX
 62
     4
370
    25
100
AcDbLine
 10
139.4948631252248
 20
124.2520193397456
 30
0.0
 11
140.1747964857981
 21
123.290448359713
 31
0.0
  0
ELLIPSE
  5
338
330
1F
100
AcDbEntity
  8
NoLayerName_001
  6
DOTSX
 62
     4
370
    25
100
AcDbEllipse
 10
143.8568211653832
 20
112.0919741512271
 30
0.0
 11
-2.268639526947034E-15
 21
-12.34989837356397
 31
0.0
210
0.0
220
0.0
230
1.0
 40
0.7071125999179947
 41
2.706347030637094
 42
3.576838276542485
  0
LINE
  5
339
330
1F
100
AcDbEntity
  8
NoLayerName_001
  6
DOTSX
 62
     4
370
    25
100
AcDbLine
 10
141.9002802578786
 20
124.5048257390551
 30
0.0
 11
139.7092283502092
 21
124.5048257390551
 31
0.0
  0
LINE
  5
33A
330
1F
100
AcDbEntity
  8
NoLayerName_001
  6
DOTSX
 62
     4
370
    25
100
AcDbLine
 10
149.4136091085576
 20
125.5780805962277
 30
0.0
 11
148.6547033211095
 21
124.5048257390552
 31
0.0
  0
ELLIPSE
  5
33B
330
1F
100
AcDbEntity
  8
NoLayerName_001
  6
DOTSX
 62
     4
370
    25
100
AcDbEllipse
 10
145.2774917894941
 20
112.0919741512271
 30
0.0
 11
-2.700346192119922E-15
 21
-14.70000000000005
 31
0.0
210
0.0
220
0.0
230
1.0
 40
0.7071067811865418
 41
1.980039578427968
 42
2.732349401956714
  0
LINE
  5
33C
330
1F
100
AcDbEntity
  8
NoLayerName_001
  6
DOTSX
 62
     4
370
    25
100
AcDbLine
 10
152.3395458460897
 20
118.0970534709347
 30
0.0
 11
151.7753730787975
 21
117.2991926919085
 31
0.0
  0
LINE
  5
33D
330
1F
100
AcDbEntity
  8
NoLayerName_001
  6
DOTSX
 62
     4
370
    25
100
AcDbLine
 10
148.2187792055416
 20
124.2520193397459
 30
0.0
 11
147.5388458449682
 21
123.290448359713
 31
0.0
  0
SPLINE
  5
33E
330
1F
100
AcDbEntity
  8
NoLayerName_001
  6
DOTSX
 62
     4
370
    25
100
AcDbSpline
210
0.0
220
0.0
230
1.0
 70
     8
 71
     3
 72
    11
 73
     7
 74
     5
 42
0.000000001
 43
0.0000000001
 44
0.0
 12
0.7672739807194778
 22
-0.6413194512182572
 32
0.0
 13
0.3730678350209185
 23
-0.9278040690106962
 33
0.0
 40
0.0
 40
0.0
 40
0.0
 40
0.0
 40
1.076004414742234
 40
3.211542016706146
 40
5.517105428427287
 40
7.511978737928681
 40
7.511978737928681
 40
7.511978737928681
 40
7.511978737928681
 10
148.2187792057202
 20
124.2520193396017
 30
0.0
 10
148.4939759359106
 20
124.0219984860114
 30
0.0
 10
149.3447459672967
 20
123.3670634709155
 30
0.0
 10
150.504868998118
 20
121.9178334005346
 30
0.0
 10
151.6202534833477
 20
120.0734661110875
 30
0.0
 10
152.091471490366
 20
118.7140039954038
 30
0.0
 10
152.3395458459382
 20
118.0970534708317
 30
0.0
 11
148.2187792057202
 21
124.2520193396017
 31
0.0
 11
149.0443693962912
 21
123.5619567788308
 31
0.0
 11
150.4311494135019
 21
121.937961078939
 31
0.0
 11
151.5953227792215
 21
119.947905044548
 31
0.0
 11
152.3395458459382
 21
118.0970534708317
 31
0.0
  0
LINE
  5
33F
330
1F
100
AcDbEntity
  8
NoLayerName_001
  6
DOTSX
 62
     4
370
    25
100
AcDbLine
 10
154.0547033211096
 20
116.8680725022402
 30
0.0
 11
151.9101127010786
 21
116.8680725022402
 31
0.0
  0
LINE
  5
340
330
1F
100
AcDbEntity
  8
NoLayerName_001
  6
DOTSX
 62
     4
370
    25
100
AcDbLine
 10
154.8136091085577
 20
117.9413273594128
 30
0.0
 11
152.2294308566247
 21
117.9413273594128
 31
0.0
  0
LINE
  5
341
330
1F
100
AcDbEntity
  8
NoLayerName_001
  6
DOTSX
 62
     4
370
    25
100
AcDbLine
 10
148.6547033211095
 20
124.5048257390551
 30
0.0
 11
147.6696622078903
 21
124.5048257390551
 31
0.0
  0
LINE
  5
342
330
1F
100
AcDbEntity
  8
NoLayerName_001
  6
DOTSX
 62
     4
370
    25
100
AcDbLine
 10
148.2187780907509
 20
124.2520177631939
 30
0.0
 11
147.6696622078903
 21
124.5048257390551
 31
0.0
  0
LINE
  5
343
330
1F
100
AcDbEntity
  8
NoLayerName_001
  6
DOTSX
 62
     4
370
    25
100
AcDbLine
 10
154.8136091085577
 20
117.9413273594128
 30
0.0
 11
154.0547033211096
 21
116.8680725022403
 31
0.0
  0
ELLIPSE
  5
344
330
1F
100
AcDbEntity
  8
NoLayerName_001
  6
Continuous
 62
     4
370
    50
100
AcDbEllipse
 10
73.50592220005416
 20
112.0919741512271
 30
0.0
 11
-2.865673510004811E-15
 21
-15.60000000000002
 31
0.0
210
0.0
220
0.0
230
1.0
 40
0.7071067811865441
 41
0.0
 42
6.283185307179586
  0
LINE
  5
345
330
1F
100
AcDbEntity
  8
NoLayerName_001
  6
DOTSX
 62
     4
370
    25
100
AcDbLine
 10
83.39536161070583
 20
117.9413273594128
 30
0.0
 11
82.63645582325776
 21
116.8680725022403
 31
0.0
  0
LINE
  5
346
330
1F
100
AcDbEntity
  8
NoLayerName_001
  6
DOTSX
 62
     4
370
    25
100
AcDbLine
 10
77.99536161070574
 20
125.5780805962277
 30
0.0
 11
77.23645582325767
 21
124.5048257390552
 31
0.0
  0
ELLIPSE
  5
347
330
1F
100
AcDbEntity
  8
NoLayerName_001
  6
DOTSX
 62
     4
370
    25
100
AcDbEllipse
 10
73.85924429164226
 20
112.0919741512271
 30
0.0
 11
8.143901214329871E-16
 21
13.29999999999995
 31
0.0
210
0.0
220
0.0
230
1.0
 40
0.7071067811865488
 41
4.345080080692704
 42
5.079697880076669
  0
ELLIPSE
  5
348
330
1F
100
AcDbEntity
  8
NoLayerName_001
  6
DOTSX
 62
     4
370
    25
100
AcDbEllipse
 10
73.85924429164226
 20
112.0919741512271
 30
0.0
 11
8.143901214329871E-16
 21
13.29999999999995
 31
0.0
210
0.0
220
0.0
230
1.0
 40
0.7071067811865488
 41
5.915876407487584
 42
6.650494206871585
  0
ELLIPSE
  5
349
330
1F
100
AcDbEntity
  8
NoLayerName_001
  6
DOTSX
 62
     4
370
    25
100
AcDbEllipse
 10
73.85924429164226
 20
112.0919741512271
 30
0.0
 11
9.001153973733073E-16
 21
14.70000000000005
 31
0.0
210
0.0
220
0.0
230
1.0
 40
0.7071067811865418
 41
5.12163223201776
 42
5.873942055546486
  0
LINE
  5
34A
330
1F
100
AcDbEntity
  8
NoLayerName_001
  6
DOTSX
 62
     4
370
    25
100
AcDbLine
 10
79.64187295591165
 20
124.2520193397456
 30
0.0
 11
78.96193959533838
 21
123.290448359713
 31
0.0
  0
ELLIPSE
  5
34B
330
1F
100
AcDbEntity
  8
NoLayerName_001
  6
DOTSX
 62
     4
370
    25
100
AcDbEllipse
 10
75.27991491575341
 20
112.0919741512271
 30
0.0
 11
7.562131756490112E-16
 21
12.34989837356397
 31
0.0
210
0.0
220
0.0
230
1.0
 40
0.7071125999179947
 41
5.8479396842269
 42
6.718430930132278
  0
LINE
  5
34C
330
1F
100
AcDbEntity
  8
NoLayerName_001
  6
DOTSX
 62
     4
370
    25
100
AcDbLine
 10
77.23645582325781
 20
124.5048257390551
 30
0.0
 11
79.42750773092729
 21
124.5048257390551
 31
0.0
  0
LINE
  5
34D
330
1F
100
AcDbEntity
  8
NoLayerName_001
  6
DOTSX
 62
     4
370
    25
100
AcDbLine
 10
69.72312697257877
 20
125.5780805962277
 30
0.0
 11
70.48203276002684
 21
124.5048257390552
 31
0.0
  0
LINE
  5
34E
330
1F
100
AcDbEntity
  8
NoLayerName_001
  6
DOTSX
 62
   140
370
    25
100
AcDbLine
 10
64.32312697257868
 20
117.9413273594128
 30
0.0
 11
65.08203276002675
 21
116.8680725022403
 31
0.0
  0
ELLIPSE
  5
34F
330
1F
100
AcDbEntity
  8
NoLayerName_001
  6
DOTSX
 62
     4
370
    25
100
AcDbEllipse
 10
73.85924429164226
 20
112.0919741512271
 30
0.0
 11
8.143901214329871E-16
 21
13.29999999999995
 31
0.0
210
0.0
220
0.0
230
1.0
 40
0.7071067811865488
 41
1.203487427102913
 42
1.938105226486876
  0
ELLIPSE
  5
350
330
1F
100
AcDbEntity
  8
NoLayerName_001
  6
DOTSX
 62
     4
370
    25
100
AcDbEllipse
 10
73.85924429164226
 20
112.0919741512271
 30
0.0
 11
9.001153973733073E-16
 21
14.70000000000005
 31
0.0
210
0.0
220
0.0
230
1.0
 40
0.7071067811865418
 41
0.4092432516330995
 42
1.161553075161825
  0
LINE
  5
351
330
1F
100
AcDbEntity
  8
NoLayerName_001
  6
DOTSX
 62
     4
370
    25
100
AcDbLine
 10
66.79719023504668
 20
118.0970534709347
 30
0.0
 11
67.36136300233889
 21
117.2991926919085
 31
0.0
  0
LINE
  5
352
330
1F
100
AcDbEntity
  8
NoLayerName_001
  6
DOTSX
 62
     4
370
    25
100
AcDbLine
 10
70.91795687559471
 20
124.2520193397459
 30
0.0
 11
71.59789023616814
 21
123.290448359713
 31
0.0
  0
SPLINE
  5
353
330
1F
100
AcDbEntity
  8
NoLayerName_001
  6
DOTSX
 62
     4
370
    25
100
AcDbSpline
210
0.0
220
0.0
230
1.0
 70
     8
 71
     3
 72
    11
 73
     7
 74
     5
 42
0.000000001
 43
0.0000000001
 44
0.0
 12
-0.7672739807194778
 22
-0.6413194512182572
 32
0.0
 13
-0.3730678350209185
 23
-0.9278040690106962
 33
0.0
 40
0.0
 40
0.0
 40
0.0
 40
0.0
 40
1.076004414742234
 40
3.211542016706146
 40
5.517105428427287
 40
7.511978737928681
 40
7.511978737928681
 40
7.511978737928681
 40
7.511978737928681
 10
70.91795687541622
 20
124.2520193396017
 30
0.0
 10
70.64276014522589
 20
124.0219984860114
 30
0.0
 10
69.79199011383982
 20
123.3670634709155
 30
0.0
 10
68.63186708301849
 20
121.9178334005346
 30
0.0
 10
67.51648259778882
 20
120.0734661110875
 30
0.0
 10
67.04526459077046
 20
118.7140039954038
 30
0.0
 10
66.79719023519823
 20
118.0970534708317
 30
0.0
 11
70.91795687541622
 21
124.2520193396017
 31
0.0
 11
70.09236668484522
 21
123.5619567788308
 31
0.0
 11
68.70558666763458
 21
121.937961078939
 31
0.0
 11
67.54141330191493
 21
119.947905044548
 31
0.0
 11
66.79719023519823
 21
118.0970534708317
 31
0.0
  0
ELLIPSE
  5
354
330
1F
100
AcDbEntity
  8
NoLayerName_001
  6
DOTSX
 62
     4
370
    25
100
AcDbEllipse
 10
75.27991491575341
 20
112.0919741512271
 30
0.0
 11
7.562131756490112E-16
 21
12.34989837356397
 31
0.0
210
0.0
220
0.0
230
1.0
 40
0.7071125999179947
 41
1.13554247494714
 42
2.006050178642661
  0
LINE
  5
355
330
1F
100
AcDbEntity
  8
NoLayerName_001
  6
DOTSX
 62
     4
370
    25
100
AcDbLine
 10
65.08203276002683
 20
116.8680725022402
 30
0.0
 11
67.22662338005784
 21
116.8680725022402
 31
0.0
  0
LINE
  5
356
330
1F
100
AcDbEntity
  8
NoLayerName_001
  6
DOTSX
 62
     4
370
    25
100
AcDbLine
 10
64.32312697257868
 20
117.9413273594128
 30
0.0
 11
66.90730522451169
 21
117.9413273594128
 31
0.0
  0
LINE
  5
357
330
1F
100
AcDbEntity
  8
NoLayerName_001
  6
DOTSX
 62
     4
370
    25
100
AcDbLine
 10
70.48203276002693
 20
124.5048257390551
 30
0.0
 11
71.46707387324615
 21
124.5048257390551
 31
0.0
  0
LINE
  5
358
330
1F
100
AcDbEntity
  8
NoLayerName_001
  6
DOTSX
 62
     4
370
    25
100
AcDbLine
 10
70.91795799038556
 20
124.2520177631939
 30
0.0
 11
71.46707387324615
 21
124.5048257390551
 31
0.0
  0
LINE
  5
359
330
1F
100
AcDbEntity
  8
NoLayerName_001
  6
DOTSX
 62
   140
370
    25
100
AcDbLine
 10
64.32312697257868
 20
106.2426209430414
 30
0.0
 11
65.08203276002675
 21
107.3158758002139
 31
0.0
  0
LINE
  5
35A
330
1F
100
AcDbEntity
  8
NoLayerName_001
  6
DOTSX
 62
     4
370
    25
100
AcDbLine
 10
69.72312697257877
 20
98.60586770622649
 30
0.0
 11
70.48203276002684
 21
99.67912256339898
 31
0.0
  0
LINE
  5
35B
330
1F
100
AcDbEntity
  8
NoLayerName_001
  6
DOTSX
 62
     4
370
    25
100
AcDbLine
 10
83.39536161070583
 20
106.2426209430414
 30
0.0
 11
82.63645582325776
 21
107.3158758002139
 31
0.0
  0
LINE
  5
35C
330
1F
100
AcDbEntity
  8
NoLayerName_001
  6
DOTSX
 62
     4
370
    25
100
AcDbLine
 10
77.99536161070574
 20
98.60586770622649
 30
0.0
 11
77.23645582325767
 21
99.67912256339898
 31
0.0
  0
ELLIPSE
  5
35D
330
1F
100
AcDbEntity
  8
NoLayerName_001
  6
DOTSX
 62
     4
370
    25
100
AcDbEllipse
 10
73.85924429164226
 20
112.0919741512271
 30
0.0
 11
8.143901214329871E-16
 21
13.29999999999995
 31
0.0
210
0.0
220
0.0
230
1.0
 40
0.7071067811865488
 41
2.77428375389779
 42
3.508901553281795
  0
ELLIPSE
  5
35E
330
1F
100
AcDbEntity
  8
NoLayerName_001
  6
DOTSX
 62
     4
370
    25
100
AcDbEllipse
 10
73.85924429164226
 20
112.0919741512271
 30
0.0
 11
9.001153973733073E-16
 21
14.70000000000005
 31
0.0
210
0.0
220
0.0
230
1.0
 40
0.7071067811865418
 41
1.980039578427963
 42
2.732349401956693
  0
ELLIPSE
  5
35F
330
1F
100
AcDbEntity
  8
NoLayerName_001
  6
DOTSX
 62
     4
370
    25
100
AcDbEllipse
 10
73.85924429164226
 20
112.0919741512271
 30
0.0
 11
9.001153973733073E-16
 21
14.70000000000005
 31
0.0
210
0.0
220
0.0
230
1.0
 40
0.7071067811865418
 41
3.550835905222892
 42
4.303145728751614
  0
LINE
  5
360
330
1F
100
AcDbEntity
  8
NoLayerName_001
  6
DOTSX
 62
     4
370
    25
100
AcDbLine
 10
70.91795687559357
 20
99.93192896270648
 30
0.0
 11
71.59789023616827
 21
100.8934999427411
 31
0.0
  0
LINE
  5
361
330
1F
100
AcDbEntity
  8
NoLayerName_001
  6
DOTSX
 62
     4
370
    25
100
AcDbLine
 10
66.79719020670069
 20
106.0868947914321
 30
0.0
 11
67.36136300233898
 21
106.8847556105457
 31
0.0
  0
LINE
  5
362
330
1F
100
AcDbEntity
  8
NoLayerName_001
  6
DOTSX
 62
     4
370
    25
100
AcDbLine
 10
79.64187295591142
 20
99.93192896270875
 30
0.0
 11
78.96193959533832
 21
100.8934999427411
 31
0.0
  0
SPLINE
  5
363
330
1F
100
AcDbEntity
  8
NoLayerName_001
  6
DOTSX
 62
     4
370
    25
100
AcDbSpline
210
0.0
220
0.0
230
1.0
 70
     8
 71
     3
 72
    11
 73
     7
 74
     5
 42
0.000000001
 43
0.0000000001
 44
0.0
 12
0.3730678352364513
 22
-0.927804068924031
 32
0.0
 13
0.7672738868052812
 23
-0.6413195635770956
 33
0.0
 40
0.0
 40
0.0
 40
0.0
 40
0.0
 40
1.994873298994747
 40
4.300436710715888
 40
6.4359743126798
 40
7.51197464570097
 40
7.51197464570097
 40
7.51197464570097
 40
7.51197464570097
 10
66.79719023868785
 20
106.0868948217014
 30
0.0
 10
67.04526459309683
 20
105.4699443004364
 30
0.0
 10
67.51648259894421
 20
104.1104821883632
 30
0.0
 10
68.6318670856025
 20
102.266114901833
 30
0.0
 10
69.79198924860836
 20
100.8168859039664
 30
0.0
 10
70.64275798999239
 20
100.1619514809687
 30
0.0
 10
70.91795364256603
 20
99.93193145964142
 30
0.0
 11
66.79719023868785
 21
106.0868948217014
 31
0.0
 11
67.54141330191482
 21
104.2360432579062
 31
0.0
 11
68.70558666763446
 21
102.2459872235152
 31
0.0
 11
70.0923666848451
 21
100.6219915236234
 31
0.0
 11
70.91795364256603
 21
99.93193145964142
 31
0.0
  0
ELLIPSE
  5
364
330
1F
100
AcDbEntity
  8
NoLayerName_001
  6
DOTSX
 62
     4
370
    25
100
AcDbEllipse
 10
75.27991491575341
 20
112.0919741512271
 30
0.0
 11
7.562131756490112E-16
 21
12.34989837356397
 31
0.0
210
0.0
220
0.0
230
1.0
 40
0.7071125999179947
 41
2.706347030637108
 42
3.576838276542485
  0
LINE
  5
365
330
1F
100
AcDbEntity
  8
NoLayerName_001
  6
DOTSX
 62
     4
370
    25
100
AcDbLine
 10
70.48203276002693
 20
99.679122563399
 30
0.0
 11
71.46707387324615
 21
99.679122563399
 31
0.0
  0
LINE
  5
366
330
1F
100
AcDbEntity
  8
NoLayerName_001
  6
DOTSX
 62
     4
370
    25
100
AcDbLine
 10
65.08203276002683
 20
107.3158758002139
 30
0.0
 11
67.22662338005784
 21
107.3158758002139
 31
0.0
  0
LINE
  5
367
330
1F
100
AcDbEntity
  8
NoLayerName_001
  6
DOTSX
 62
     4
370
    25
100
AcDbLine
 10
64.32312697257868
 20
106.2426209430414
 30
0.0
 11
66.9073052245116
 21
106.2426209430414
 31
0.0
  0
LINE
  5
368
330
1F
100
AcDbEntity
  8
NoLayerName_001
  6
DOTSX
 62
     4
370
    25
100
AcDbLine
 10
77.23645582325781
 20
99.679122563399
 30
0.0
 11
79.42750773092729
 21
99.679122563399
 31
0.0
  0
LINE
  5
369
330
1F
100
AcDbEntity
  8
NoLayerName_001
  6
DOTSX
 62
     4
370
    25
100
AcDbLine
 10
70.91795799038556
 20
99.93193053926029
 30
0.0
 11
71.46707387324615
 21
99.679122563399
 31
0.0
  0
LINE
  5
36A
330
1F
100
AcDbEntity
  8
NoLayerName_004
  6
Continuous
 62
     7
370
   100
100
AcDbLine
 10
186.0
 20
40.0
 30
0.0
 11
186.0
 21
20.0
 31
0.0
  0
LINE
  5
36B
330
1F
100
AcDbEntity
  8
NoLayerName_004
  6
Continuous
 62
     7
370
    25
100
AcDbLine
 10
126.5
 20
27.0
 30
0.0
 11
186.0
 21
27.0
 31
0.0
  0
LINE
  5
36C
330
1F
100
AcDbEntity
  8
NoLayerName_004
  6
Continuous
 62
     7
370
    25
100
AcDbLine
 10
137.5
 20
40.0
 30
0.0
 11
137.5
 21
20.0
 31
0.0
  0
LINE
  5
36D
330
1F
100
AcDbEntity
  8
NoLayerName_004
  6
Continuous
 62
     7
370
   100
100
AcDbLine
 10
126.5
 20
40.0
 30
0.0
 11
126.5
 21
20.0
 31
0.0
  0
LINE
  5
36E
330
1F
100
AcDbEntity
  8
NoLayerName_004
  6
Continuous
 62
     7
370
   100
100
AcDbLine
 10
186.0
 20
40.0
 30
0.0
 11
126.5
 21
40.0
 31
0.0
  0
LINE
  5
36F
330
1F
100
AcDbEntity
  8
NoLayerName_004
  6
Continuous
 62
     7
370
   100
100
AcDbLine
 10
126.5
 20
20.0
 30
0.0
 11
186.0
 21
20.0
 31
0.0
  0
MTEXT
  5
370
330
1F
100
AcDbEntity
  8
NoLayerName_004
 62
     7
370
    50
100
AcDbMText
 10
127.6480002403259
 20
31.89999997615814
 30
0.0
 40
2.206896584609459
 41
0.0
 71
     7
 72
     5
  1
\fＭＳ Ｐゴシック|b0|c128|p50;\A1;品　名
 73
     1
 44
1.299389002163688
1001
ACAD
1000
ACAD_MTEXT_DEFINED_HEIGHT_BEGIN
1070
    46
1040
3.200000047683716
1000
ACAD_MTEXT_DEFINED_HEIGHT_END
  0
MTEXT
  5
371
330
1F
100
AcDbEntity
  8
NoLayerName_001
 62
     7
370
    50
100
AcDbMText
 10
161.75
 20
23.50000002384186
 30
0.0
 40
2.206896584609459
 41
0.0
 71
     5
 72
     5
  1
\fＭＳ Ｐゴシック|b0|c128|p50;\A1;８ＣＢ５ＺＣ
 73
     1
 44
1.299389002163688
1001
ACAD
1000
ACAD_MTEXT_DEFINED_HEIGHT_BEGIN
1070
    46
1040
3.200000047683716
1000
ACAD_MTEXT_DEFINED_HEIGHT_END
  0
MTEXT
  5
372
330
1F
100
AcDbEntity
  8
NoLayerName_001
 62
     7
370
    50
100
AcDbMText
 10
161.6635284423828
 20
33.50000002384186
 30
0.0
 40
2.206896584609459
 41
0.0
 71
     5
 72
     5
  1
\fＭＳ Ｐゴシック|b0|c128|p50;\A1;結露防止カバー付\P八角コンクリートボックス\P深Ｉ形
 73
     1
 44
0.9745417371009623
1001
ACAD
1000
ACAD_MTEXT_DEFINED_HEIGHT_BEGIN
1070
    46
1040
9.600000143051147
1000
ACAD_MTEXT_DEFINED_HEIGHT_END
  0
MTEXT
  5
373
330
1F
100
AcDbEntity
  8
NoLayerName_004
 62
     7
370
    50
100
AcDbMText
 10
127.6480002403259
 20
21.89999997615814
 30
0.0
 40
2.206896584609459
 41
0.0
 71
     7
 72
     5
  1
\fＭＳ Ｐゴシック|b0|c128|p50;\A1;品　番
 73
     1
 44
1.299389002163688
1001
ACAD
1000
ACAD_MTEXT_DEFINED_HEIGHT_BEGIN
1070
    46
1040
3.200000047683716
1000
ACAD_MTEXT_DEFINED_HEIGHT_END
  0
ENDSEC
  0
SECTION
  2
OBJECTS
  0
DICTIONARY
  5
C
330
0
100
AcDbDictionary
281
     1
  3
ACAD_GROUP
350
D
  3
ACAD_LAYOUT
350
1A
  3
ACAD_MATERIAL
350
43
  3
ACAD_MLEADERSTYLE
350
376
  3
ACAD_MLINESTYLE
350
17
  3
ACAD_PLOTSETTINGS
350
19
  3
ACAD_PLOTSTYLENAME
350
E
  3
ACAD_SCALELIST
350
47
  3
ACAD_VISUALSTYLE
350
2A
  3
AcDbVariableDictionary
350
374
  3
DWGPROPS
350
37D
  0
DICTIONARY
  5
D
102
{ACAD_REACTORS
330
C
102
}
330
C
100
AcDbDictionary
281
     1
  0
DICTIONARY
  5
1A
102
{ACAD_REACTORS
330
C
102
}
330
C
100
AcDbDictionary
281
     1
  3
Layout1
350
1E
  3
Model
350
22
  0
DICTIONARY
  5
43
102
{ACAD_REACTORS
330
C
102
}
330
C
100
AcDbDictionary
281
     1
  3
ByBlock
350
45
  3
ByLayer
350
44
  3
Global
350
46
  0
DICTIONARY
  5
376
102
{ACAD_REACTORS
330
C
102
}
330
C
100
AcDbDictionary
281
     1
  0
DICTIONARY
  5
17
102
{ACAD_REACTORS
330
C
102
}
330
C
100
AcDbDictionary
281
     1
  3
Standard
350
18
  0
DICTIONARY
  5
19
102
{ACAD_REACTORS
330
C
102
}
330
C
100
AcDbDictionary
281
     1
  0
ACDBDICTIONARYWDFLT
  5
E
102
{ACAD_REACTORS
330
C
102
}
330
C
100
AcDbDictionary
281
     1
  3
Normal
350
F
100
AcDbDictionaryWithDefault
340
F
  0
DICTIONARY
  5
47
102
{ACAD_REACTORS
330
C
102
}
330
C
100
AcDbDictionary
281
     1
  3
A0
350
48
  3
A1
350
49
  3
A2
350
4A
  3
A3
350
4B
  3
A4
350
4C
  3
A5
350
4D
  3
A6
350
4E
  3
A7
350
4F
  3
A8
350
50
  3
A9
350
51
  3
B0
350
52
  3
B1
350
53
  3
B2
350
54
  3
B3
350
55
  3
B4
350
56
  3
B5
350
57
  3
B6
350
58
  3
B7
350
59
  3
B8
350
5A
  3
B9
350
5B
  3
C0
350
5C
  3
C1
350
5D
  3
C2
350
5E
  3
C3
350
5F
  3
C4
350
60
  3
C5
350
61
  3
C6
350
62
  3
C7
350
63
  3
C8
350
64
  3
C9
350
65
  3
D0
350
66
  3
D1
350
67
  3
D2
350
68
  0
DICTIONARY
  5
2A
102
{ACAD_REACTORS
330
C
102
}
330
C
100
AcDbDictionary
281
     1
  3
2dWireframe
350
2F
  3
Basic
350
32
  3
Brighten
350
36
  3
ColorChange
350
3A
  3
Conceptual
350
34
  3
Dim
350
35
  3
EdgeColorOff
350
3D
  3
Facepattern
350
39
  3
Flat
350
2B
  3
FlatWithEdges
350
2C
  3
Gouraud
350
2D
  3
GouraudWithEdges
350
2E
  3
Hidden
350
31
  3
JitterOff
350
3B
  3
Linepattern
350
38
  3
OverhangOff
350
3C
  3
Realistic
350
33
  3
Shaded
350
42
  3
Shaded with edges
350
41
  3
Shades of Gray
350
3E
  3
Sketchy
350
3F
  3
Thicken
350
37
  3
Wireframe
350
30
  3
X-Ray
350
40
  0
DICTIONARY
  5
374
102
{ACAD_REACTORS
330
C
102
}
330
C
100
AcDbDictionary
281
     1
  3
CANNOSCALE
350
37E
  3
DIMASSOC
350
37B
  3
HIDETEXT
350
37C
  3
MSLTSCALE
350
37F
  3
PSOLHEIGHT
350
378
  3
PSOLWIDTH
350
377
  0
XRECORD
  5
37D
102
{ACAD_REACTORS
330
C
102
}
330
C
100
AcDbXrecord
280
     1
  1
DWGPROPS COOKIE
  2

  3

  4

  6
File was created by TR2_DExp
  7

  8

  9

300
=
301
=
302
=
303
=
304
=
305
=
306
=
307
=
308
=
309
=
 40
0.0
 41
2455188.375
 42
2455188.375
  1

 90
        0
  0
LAYOUT
  5
1E
102
{ACAD_REACTORS
330
1A
102
}
330
1A
100
AcDbPlotSettings
  1

  2
none_device
  4

  6

 40
0.0
 41
0.0
 42
0.0
 43
0.0
 44
0.0
 45
0.0
 46
0.0
 47
0.0
 48
0.0
 49
0.0
140
0.0
141
0.0
142
1.0
143
1.0
 70
   688
 72
     1
 73
     0
 74
     5
  7

 75
    16
147
1.0
148
0.0
149
0.0
100
AcDbLayout
  1
Layout1
 70
     0
 71
     1
 10
0.0
 20
0.0
 11
420.0
 21
297.0
 12
0.0
 22
0.0
 32
0.0
 14
1.000000000000000E+20
 24
1.000000000000000E+20
 34
1.000000000000000E+20
 15
-1.000000000000000E+20
 25
-1.000000000000000E+20
 35
-1.000000000000000E+20
146
0.0
 13
0.0
 23
0.0
 33
0.0
 16
1.0
 26
0.0
 36
0.0
 17
0.0
 27
1.0
 37
0.0
 76
     0
330
1B
  0
LAYOUT
  5
22
102
{ACAD_REACTORS
330
1A
102
}
330
1A
100
AcDbPlotSettings
  1

  2
none_device
  4
Letter_(8.50_x_11.00_Inches)
  6

 40
6.35
 41
6.35
 42
6.35000508
 43
6.35000508
 44
215.9
 45
279.4
 46
0.0
 47
0.0
 48
0.0
 49
0.0
140
0.0
141
0.0
142
1.0
143
1.0
 70
  1712
 72
     1
 73
     0
 74
     0
  7

 75
     0
147
1.0
148
0.0
149
0.0
100
AcDbLayout
  1
Model
 70
     1
 71
     0
 10
44.06836804056802
 20
20.0
 11
186.0
 21
273.8923451662372
 12
0.0
 22
0.0
 32
0.0
 14
44.06836804056802
 24
20.0
 34
0.0
 15
186.0
 25
273.8923451662372
 35
0.0
146
0.0
 13
0.0
 23
0.0
 33
0.0
 16
1.0
 26
0.0
 36
0.0
 17
0.0
 27
1.0
 37
0.0
 76
     0
330
1F
331
29
  0
MATERIAL
  5
45
102
{ACAD_REACTORS
330
43
102
}
102
{ACAD_XDICTIONARY
360
3B2
102
}
330
43
100
AcDbMaterial
  1
ByBlock
  0
MATERIAL
  5
44
102
{ACAD_REACTORS
330
43
102
}
102
{ACAD_XDICTIONARY
360
3B0
102
}
330
43
100
AcDbMaterial
  1
ByLayer
  0
MATERIAL
  5
46
102
{ACAD_REACTORS
330
43
102
}
102
{ACAD_XDICTIONARY
360
3B4
102
}
330
43
100
AcDbMaterial
  1
Global
  0
MLINESTYLE
  5
18
102
{ACAD_REACTORS
330
17
102
}
330
17
100
AcDbMlineStyle
  2
Standard
 70
     0
  3

 62
   256
 51
90.0
 52
90.0
 71
     2
 49
0.5
 62
   256
  6
BYLAYER
 49
-0.5
 62
   256
  6
BYLAYER
  0
ACDBPLACEHOLDER
  5
F
102
{ACAD_REACTORS
330
E
102
}
330
E
  0
SCALE
  5
48
102
{ACAD_REACTORS
330
47
102
}
330
47
100
AcDbScale
 70
     0
300
1:1
140
1.0
141
1.0
290
     1
  0
SCALE
  5
49
102
{ACAD_REACTORS
330
47
102
}
330
47
100
AcDbScale
 70
     0
300
1:2
140
1.0
141
2.0
290
     0
  0
SCALE
  5
4A
102
{ACAD_REACTORS
330
47
102
}
330
47
100
AcDbScale
 70
     0
300
1:4
140
1.0
141
4.0
290
     0
  0
SCALE
  5
4B
102
{ACAD_REACTORS
330
47
102
}
330
47
100
AcDbScale
 70
     0
300
1:5
140
1.0
141
5.0
290
     0
  0
SCALE
  5
4C
102
{ACAD_REACTORS
330
47
102
}
330
47
100
AcDbScale
 70
     0
300
1:8
140
1.0
141
8.0
290
     0
  0
SCALE
  5
4D
102
{ACAD_REACTORS
330
47
102
}
330
47
100
AcDbScale
 70
     0
300
1:10
140
1.0
141
10.0
290
     0
  0
SCALE
  5
4E
102
{ACAD_REACTORS
330
47
102
}
330
47
100
AcDbScale
 70
     0
300
1:16
140
1.0
141
16.0
290
     0
  0
SCALE
  5
4F
102
{ACAD_REACTORS
330
47
102
}
330
47
100
AcDbScale
 70
     0
300
1:20
140
1.0
141
20.0
290
     0
  0
SCALE
  5
50
102
{ACAD_REACTORS
330
47
102
}
330
47
100
AcDbScale
 70
     0
300
1:30
140
1.0
141
30.0
290
     0
  0
SCALE
  5
51
102
{ACAD_REACTORS
330
47
102
}
330
47
100
AcDbScale
 70
     0
300
1:40
140
1.0
141
40.0
290
     0
  0
SCALE
  5
52
102
{ACAD_REACTORS
330
47
102
}
330
47
100
AcDbScale
 70
     0
300
1:50
140
1.0
141
50.0
290
     0
  0
SCALE
  5
53
102
{ACAD_REACTORS
330
47
102
}
330
47
100
AcDbScale
 70
     0
300
1:100
140
1.0
141
100.0
290
     0
  0
SCALE
  5
54
102
{ACAD_REACTORS
330
47
102
}
330
47
100
AcDbScale
 70
     0
300
2:1
140
2.0
141
1.0
290
     0
  0
SCALE
  5
55
102
{ACAD_REACTORS
330
47
102
}
330
47
100
AcDbScale
 70
     0
300
4:1
140
4.0
141
1.0
290
     0
  0
SCALE
  5
56
102
{ACAD_REACTORS
330
47
102
}
330
47
100
AcDbScale
 70
     0
300
8:1
140
8.0
141
1.0
290
     0
  0
SCALE
  5
57
102
{ACAD_REACTORS
330
47
102
}
330
47
100
AcDbScale
 70
     0
300
10:1
140
10.0
141
1.0
290
     0
  0
SCALE
  5
58
102
{ACAD_REACTORS
330
47
102
}
330
47
100
AcDbScale
 70
     0
300
100:1
140
100.0
141
1.0
290
     0
  0
SCALE
  5
59
102
{ACAD_REACTORS
330
47
102
}
330
47
100
AcDbScale
 70
     0
300
1/128" = 1'-0"
140
0.0078125
141
12.0
290
     0
  0
SCALE
  5
5A
102
{ACAD_REACTORS
330
47
102
}
330
47
100
AcDbScale
 70
     0
300
1/64" = 1'-0"
140
0.015625
141
12.0
290
     0
  0
SCALE
  5
5B
102
{ACAD_REACTORS
330
47
102
}
330
47
100
AcDbScale
 70
     0
300
1/32" = 1'-0"
140
0.03125
141
12.0
290
     0
  0
SCALE
  5
5C
102
{ACAD_REACTORS
330
47
102
}
330
47
100
AcDbScale
 70
     0
300
1/16" = 1'-0"
140
0.0625
141
12.0
290
     0
  0
SCALE
  5
5D
102
{ACAD_REACTORS
330
47
102
}
330
47
100
AcDbScale
 70
     0
300
3/32" = 1'-0"
140
0.09375
141
12.0
290
     0
  0
SCALE
  5
5E
102
{ACAD_REACTORS
330
47
102
}
330
47
100
AcDbScale
 70
     0
300
1/8" = 1'-0"
140
0.125
141
12.0
290
     0
  0
SCALE
  5
5F
102
{ACAD_REACTORS
330
47
102
}
330
47
100
AcDbScale
 70
     0
300
3/16" = 1'-0"
140
0.1875
141
12.0
290
     0
  0
SCALE
  5
60
102
{ACAD_REACTORS
330
47
102
}
330
47
100
AcDbScale
 70
     0
300
1/4" = 1'-0"
140
0.25
141
12.0
290
     0
  0
SCALE
  5
61
102
{ACAD_REACTORS
330
47
102
}
330
47
100
AcDbScale
 70
     0
300
3/8" = 1'-0"
140
0.375
141
12.0
290
     0
  0
SCALE
  5
62
102
{ACAD_REACTORS
330
47
102
}
330
47
100
AcDbScale
 70
     0
300
1/2" = 1'-0"
140
0.5
141
12.0
290
     0
  0
SCALE
  5
63
102
{ACAD_REACTORS
330
47
102
}
330
47
100
AcDbScale
 70
     0
300
3/4" = 1'-0"
140
0.75
141
12.0
290
     0
  0
SCALE
  5
64
102
{ACAD_REACTORS
330
47
102
}
330
47
100
AcDbScale
 70
     0
300
1" = 1'-0"
140
1.0
141
12.0
290
     0
  0
SCALE
  5
65
102
{ACAD_REACTORS
330
47
102
}
330
47
100
AcDbScale
 70
     0
300
1-1/2" = 1'-0"
140
1.5
141
12.0
290
     0
  0
SCALE
  5
66
102
{ACAD_REACTORS
330
47
102
}
330
47
100
AcDbScale
 70
     0
300
3" = 1'-0"
140
3.0
141
12.0
290
     0
  0
SCALE
  5
67
102
{ACAD_REACTORS
330
47
102
}
330
47
100
AcDbScale
 70
     0
300
6" = 1'-0"
140
6.0
141
12.0
290
     0
  0
SCALE
  5
68
102
{ACAD_REACTORS
330
47
102
}
330
47
100
AcDbScale
 70
     0
300
1'-0" = 1'-0"
140
12.0
141
12.0
290
     0
  0
VISUALSTYLE
  5
2F
102
{ACAD_REACTORS
330
2A
102
}
102
{ACAD_XDICTIONARY
360
388
102
}
330
2A
100
AcDbVisualStyle
  2
2dWireframe
 70
     4
 71
     0
 72
     2
 73
     0
 90
        0
 40
0.6
 41
30.0
 62
     5
 63
     7
 74
     1
 91
        4
 64
     7
 65
   257
 75
     1
175
     1
 42
1.0
 92
        0
 66
   257
 43
1.0
 76
     1
 77
     6
 78
     2
 67
     7
 79
     5
170
     0
171
     0
290
     0
174
     0
 93
        1
 44
0.0
173
     0
291
     0
 45
0.0
1001
ACAD
1000
AcDbSavedByObjectVersion
1070
     0
  0
VISUALSTYLE
  5
32
102
{ACAD_REACTORS
330
2A
102
}
102
{ACAD_XDICTIONARY
360
38E
102
}
330
2A
100
AcDbVisualStyle
  2
Basic
 70
     7
 71
     1
 72
     0
 73
     1
 90
        0
 40
0.6
 41
30.0
 62
     5
 63
     7
 74
     0
 91
        4
 64
     7
 65
   257
 75
     1
175
     1
 42
1.0
 92
        8
 66
     7
 43
1.0
 76
     1
 77
     6
 78
     2
 67
     7
 79
     5
170
     0
171
     0
290
     0
174
     0
 93
        1
 44
0.0
173
     0
291
     1
 45
0.0
1001
ACAD
1000
AcDbSavedByObjectVersion
1070
     0
  0
VISUALSTYLE
  5
36
102
{ACAD_REACTORS
330
2A
102
}
102
{ACAD_XDICTIONARY
360
396
102
}
330
2A
100
AcDbVisualStyle
  2
Brighten
 70
    12
 71
     2
 72
     2
 73
     0
 90
        0
 40
0.6
 41
30.0
 62
     5
 63
     7
 74
     1
 91
        4
 64
     7
 65
   257
 75
     1
175
     1
 42
1.0
 92
        8
 66
     7
 43
1.0
 76
     1
 77
     6
 78
     2
 67
     7
 79
     5
170
     0
171
     0
290
     0
174
     0
 93
        1
 44
50.0
173
     0
291
     1
 45
0.0
1001
ACAD
1000
AcDbSavedByObjectVersion
1070
     0
  0
VISUALSTYLE
  5
3A
102
{ACAD_REACTORS
330
2A
102
}
102
{ACAD_XDICTIONARY
360
39E
102
}
330
2A
100
AcDbVisualStyle
  2
ColorChange
 70
    16
 71
     2
 72
     2
 73
     3
 90
        0
 40
0.6
 41
30.0
 62
     5
 63
     8
 74
     1
 91
        4
 64
     7
 65
   257
 75
     1
175
     1
 42
1.0
 92
        8
 66
     8
 43
1.0
 76
     1
 77
     6
 78
     2
 67
     7
 79
     5
170
     0
171
     0
290
     0
174
     0
 93
        1
 44
0.0
173
     0
291
     1
 45
0.0
1001
ACAD
1000
AcDbSavedByObjectVersion
1070
     0
  0
VISUALSTYLE
  5
34
102
{ACAD_REACTORS
330
2A
102
}
102
{ACAD_XDICTIONARY
360
392
102
}
330
2A
100
AcDbVisualStyle
  2
Conceptual
 70
     9
 71
     3
 72
     2
 73
     0
 90
        0
 40
0.6
 41
30.0
 62
     5
 63
     7
 74
     2
 91
        2
 64
     7
 65
   257
 75
     1
175
     1
 42
179.0
 92
        8
 66
     7
 43
1.0
 76
     1
 77
     6
 78
     2
 67
     7
 79
     3
170
     0
171
     0
290
     0
174
     0
 93
        1
 44
0.0
173
     0
291
     0
 45
0.0
1001
ACAD
1000
AcDbSavedByObjectVersion
1070
     0
  0
VISUALSTYLE
  5
35
102
{ACAD_REACTORS
330
2A
102
}
102
{ACAD_XDICTIONARY
360
394
102
}
330
2A
100
AcDbVisualStyle
  2
Dim
 70
    11
 71
     2
 72
     2
 73
     0
 90
        0
 40
0.6
 41
30.0
 62
     5
 63
     7
 74
     1
 91
        4
 64
     7
 65
   257
 75
     1
175
     1
 42
1.0
 92
        8
 66
     7
 43
1.0
 76
     1
 77
     6
 78
     2
 67
     7
 79
     5
170
     0
171
     0
290
     0
174
     0
 93
        1
 44
-50.0
173
     0
291
     1
 45
0.0
1001
ACAD
1000
AcDbSavedByObjectVersion
1070
     0
  0
VISUALSTYLE
  5
3D
102
{ACAD_REACTORS
330
2A
102
}
102
{ACAD_XDICTIONARY
360
3A4
102
}
330
2A
100
AcDbVisualStyle
  2
EdgeColorOff
 70
    22
 71
     2
 72
     2
 73
     0
 90
        0
 40
0.6
 41
30.0
 62
     5
 63
     7
 74
     1
 91
        4
 64
     7
 65
   257
 75
     1
175
     1
 42
1.0
 92
        8
 66
     7
 43
1.0
 76
     1
 77
     6
 78
     2
 67
     7
 79
     5
170
     0
171
     0
290
     0
174
     0
 93
        1
 44
0.0
173
     0
291
     1
 45
0.0
1001
ACAD
1000
AcDbSavedByObjectVersion
1070
     0
  0
VISUALSTYLE
  5
39
102
{ACAD_REACTORS
330
2A
102
}
102
{ACAD_XDICTIONARY
360
39C
102
}
330
2A
100
AcDbVisualStyle
  2
Facepattern
 70
    15
 71
     2
 72
     2
 73
     0
 90
        0
 40
0.6
 41
30.0
 62
     5
 63
     7
 74
     1
 91
        4
 64
     7
 65
   257
 75
     1
175
     1
 42
1.0
 92
        8
 66
     7
 43
1.0
 76
     1
 77
     6
 78
     2
 67
     7
 79
     5
170
     0
171
     0
290
     0
174
     0
 93
        1
 44
0.0
173
     0
291
     1
 45
0.0
1001
ACAD
1000
AcDbSavedByObjectVersion
1070
     0
  0
VISUALSTYLE
  5
2B
102
{ACAD_REACTORS
330
2A
102
}
102
{ACAD_XDICTIONARY
360
380
102
}
330
2A
100
AcDbVisualStyle
  2
Flat
 70
     0
 71
     2
 72
     1
 73
     1
 90
        2
 40
0.6
 41
30.0
 62
     5
 63
     7
 74
     0
 91
        0
 64
     7
 65
   257
 75
     1
175
     1
 42
1.0
 92
        8
 66
     7
 43
1.0
 76
     1
 77
     6
 78
     2
 67
     7
 79
     5
170
     0
171
     0
290
     0
174
     0
 93
       13
 44
0.0
173
     0
291
     1
 45
0.0
1001
ACAD
1000
AcDbSavedByObjectVersion
1070
     0
  0
VISUALSTYLE
  5
2C
102
{ACAD_REACTORS
330
2A
102
}
102
{ACAD_XDICTIONARY
360
382
102
}
330
2A
100
AcDbVisualStyle
  2
FlatWithEdges
 70
     1
 71
     2
 72
     1
 73
     1
 90
        2
 40
0.6
 41
30.0
 62
     5
 63
     7
 74
     1
 91
        0
 64
     7
 65
   257
 75
     1
175
     1
 42
1.0
 92
        0
 66
   257
 43
1.0
 76
     1
 77
     6
 78
     2
 67
     7
 79
     5
170
     0
171
     0
290
     0
174
     0
 93
       13
 44
0.0
173
     0
291
     1
 45
0.0
1001
ACAD
1000
AcDbSavedByObjectVersion
1070
     0
  0
VISUALSTYLE
  5
2D
102
{ACAD_REACTORS
330
2A
102
}
102
{ACAD_XDICTIONARY
360
384
102
}
330
2A
100
AcDbVisualStyle
  2
Gouraud
 70
     2
 71
     2
 72
     2
 73
     1
 90
        2
 40
0.6
 41
30.0
 62
     5
 63
     7
 74
     0
 91
        0
 64
     7
 65
   257
 75
     1
175
     1
 42
1.0
 92
        0
 66
     7
 43
1.0
 76
     1
 77
     6
 78
     2
 67
     7
 79
     5
170
     0
171
     0
290
     0
174
     0
 93
       13
 44
0.0
173
     0
291
     1
 45
0.0
1001
ACAD
1000
AcDbSavedByObjectVersion
1070
     0
  0
VISUALSTYLE
  5
2E
102
{ACAD_REACTORS
330
2A
102
}
102
{ACAD_XDICTIONARY
360
386
102
}
330
2A
100
AcDbVisualStyle
  2
GouraudWithEdges
 70
     3
 71
     2
 72
     2
 73
     1
 90
        2
 40
0.6
 41
30.0
 62
     5
 63
     7
 74
     1
 91
        0
 64
     7
 65
   257
 75
     1
175
     1
 42
1.0
 92
        0
 66
   257
 43
1.0
 76
     1
 77
     6
 78
     2
 67
     7
 79
     5
170
     0
171
     0
290
     0
174
     0
 93
       13
 44
0.0
173
     0
291
     1
 45
0.0
1001
ACAD
1000
AcDbSavedByObjectVersion
1070
     0
  0
VISUALSTYLE
  5
31
102
{ACAD_REACTORS
330
2A
102
}
102
{ACAD_XDICTIONARY
360
38C
102
}
330
2A
100
AcDbVisualStyle
  2
Hidden
 70
     6
 71
     1
 72
     2
 73
     2
 90
        0
 40
0.6
 41
30.0
 62
     5
 63
     7
 74
     2
 91
        2
 64
     7
 65
   257
 75
     2
175
     1
 42
40.0
 92
        0
 66
   257
 43
1.0
 76
     1
 77
     6
 78
     2
 67
     7
 79
     3
170
     0
171
     0
290
     0
174
     0
 93
        1
 44
0.0
173
     0
291
     0
 45
0.0
1001
ACAD
1000
AcDbSavedByObjectVersion
1070
     0
  0
VISUALSTYLE
  5
3B
102
{ACAD_REACTORS
330
2A
102
}
102
{ACAD_XDICTIONARY
360
3A0
102
}
330
2A
100
AcDbVisualStyle
  2
JitterOff
 70
    20
 71
     2
 72
     2
 73
     0
 90
        0
 40
0.6
 41
30.0
 62
     5
 63
     7
 74
     1
 91
        4
 64
     7
 65
   257
 75
     1
175
     1
 42
1.0
 92
       10
 66
     7
 43
1.0
 76
     1
 77
     6
 78
     2
 67
     7
 79
     5
170
     0
171
     0
290
     0
174
     0
 93
        1
 44
0.0
173
     0
291
     1
 45
0.0
1001
ACAD
1000
AcDbSavedByObjectVersion
1070
     0
  0
VISUALSTYLE
  5
38
102
{ACAD_REACTORS
330
2A
102
}
102
{ACAD_XDICTIONARY
360
39A
102
}
330
2A
100
AcDbVisualStyle
  2
Linepattern
 70
    14
 71
     2
 72
     2
 73
     0
 90
        0
 40
0.6
 41
30.0
 62
     5
 63
     7
 74
     1
 91
        4
 64
     7
 65
   257
 75
     7
175
     7
 42
1.0
 92
        8
 66
     7
 43
1.0
 76
     1
 77
     6
 78
     2
 67
     7
 79
     5
170
     0
171
     0
290
     0
174
     0
 93
        1
 44
0.0
173
     0
291
     1
 45
0.0
1001
ACAD
1000
AcDbSavedByObjectVersion
1070
     0
  0
VISUALSTYLE
  5
3C
102
{ACAD_REACTORS
330
2A
102
}
102
{ACAD_XDICTIONARY
360
3A2
102
}
330
2A
100
AcDbVisualStyle
  2
OverhangOff
 70
    21
 71
     2
 72
     2
 73
     0
 90
        0
 40
0.6
 41
30.0
 62
     5
 63
     7
 74
     1
 91
        4
 64
     7
 65
   257
 75
     1
175
     1
 42
1.0
 92
        9
 66
     7
 43
1.0
 76
     1
 77
     6
 78
     2
 67
     7
 79
     5
170
     0
171
     0
290
     0
174
     0
 93
        1
 44
0.0
173
     0
291
     1
 45
0.0
1001
ACAD
1000
AcDbSavedByObjectVersion
1070
     0
  0
VISUALSTYLE
  5
33
102
{ACAD_REACTORS
330
2A
102
}
102
{ACAD_XDICTIONARY
360
390
102
}
330
2A
100
AcDbVisualStyle
  2
Realistic
 70
     8
 71
     2
 72
     3
 73
     0
 90
        2
 40
0.6
 41
30.0
 62
     5
 63
     7
 74
     0
 91
        0
 64
     7
 65
   257
 75
     1
175
     1
 42
1.0
 92
        8
 66
   257
 43
1.0
 76
     1
 77
     6
 78
     2
 67
     7
 79
     3
170
     0
171
     0
290
     0
174
     0
 93
       13
 44
0.0
173
     0
291
     0
 45
0.0
1001
ACAD
1000
AcDbSavedByObjectVersion
1070
     0
  0
VISUALSTYLE
  5
42
102
{ACAD_REACTORS
330
2A
102
}
102
{ACAD_XDICTIONARY
360
3AE
102
}
330
2A
100
AcDbVisualStyle
  2
Shaded
 70
    27
 71
     2
 72
     2
 73
     1
 90
        2
 40
0.6
 41
30.0
 62
     5
 63
     7
 74
     0
 91
        4
 64
     7
 65
   257
 75
     1
175
     1
 42
1.0
 92
        8
 66
   257
 43
1.0
 76
     1
 77
     6
 78
     2
 67
     8
 79
     3
170
     0
171
     0
290
     0
174
     0
 93
        5
 44
0.0
173
     0
291
     0
 45
0.0
1001
ACAD
1000
AcDbSavedByObjectVersion
1070
     0
  0
VISUALSTYLE
  5
41
102
{ACAD_REACTORS
330
2A
102
}
102
{ACAD_XDICTIONARY
360
3AC
102
}
330
2A
100
AcDbVisualStyle
  2
Shaded with edges
 70
    26
 71
     2
 72
     2
 73
     1
 90
        2
 40
0.6
 41
30.0
 62
     5
 63
     7
 74
     1
 91
       10
 64
     7
 65
   257
 75
     2
175
     1
 42
1.0
 92
        8
 66
   257
 43
1.0
 76
     1
 77
     6
 78
     2
 67
     7
 79
     3
170
     0
171
     0
290
     0
174
     0
 93
        5
 44
0.0
173
     0
291
     0
 45
0.0
1001
ACAD
1000
AcDbSavedByObjectVersion
1070
     0
  0
VISUALSTYLE
  5
3E
102
{ACAD_REACTORS
330
2A
102
}
102
{ACAD_XDICTIONARY
360
3A6
102
}
330
2A
100
AcDbVisualStyle
  2
Shades of Gray
 70
    23
 71
     2
 72
     2
 73
     3
 90
        0
 40
0.6
 41
30.0
 62
     5
 63
     7
 74
     2
 91
        2
 64
     7
 65
     7
 75
     1
175
     1
 42
40.0
 92
        8
 66
     7
 43
1.0
 76
     1
 77
     6
 78
     2
 67
     7
 79
     3
170
     0
171
     0
290
     0
174
     0
 93
        1
 44
0.0
173
     0
291
     0
 45
0.0
1001
ACAD
1000
AcDbSavedByObjectVersion
1070
     0
  0
VISUALSTYLE
  5
3F
102
{ACAD_REACTORS
330
2A
102
}
102
{ACAD_XDICTIONARY
360
3A8
102
}
330
2A
100
AcDbVisualStyle
  2
Sketchy
 70
    24
 71
     1
 72
     2
 73
     2
 90
        0
 40
0.6
 41
30.0
 62
     5
 63
     7
 74
     2
 91
        2
 64
     7
 65
     7
 75
     1
175
     1
 42
40.0
 92
       11
 66
     7
 43
1.0
 76
     1
 77
     6
 78
     2
 67
     7
 79
     6
170
     0
171
     0
290
     0
174
     0
 93
        1
 44
0.0
173
     0
291
     0
 45
0.0
1001
ACAD
1000
AcDbSavedByObjectVersion
1070
     0
  0
VISUALSTYLE
  5
37
102
{ACAD_REACTORS
330
2A
102
}
102
{ACAD_XDICTIONARY
360
398
102
}
330
2A
100
AcDbVisualStyle
  2
Thicken
 70
    13
 71
     2
 72
     2
 73
     0
 90
        0
 40
0.6
 41
30.0
 62
     5
 63
     7
 74
     1
 91
        4
 64
     7
 65
   257
 75
     1
175
     1
 42
1.0
 92
       12
 66
     7
 43
1.0
 76
     1
 77
     6
 78
     2
 67
     7
 79
     5
170
     0
171
     0
290
     0
174
     0
 93
        1
 44
0.0
173
     0
291
     1
 45
0.0
1001
ACAD
1000
AcDbSavedByObjectVersion
1070
     0
  0
VISUALSTYLE
  5
30
102
{ACAD_REACTORS
330
2A
102
}
102
{ACAD_XDICTIONARY
360
38A
102
}
330
2A
100
AcDbVisualStyle
  2
Wireframe
 70
     5
 71
     0
 72
     2
 73
     0
 90
        0
 40
0.6
 41
30.0
 62
     5
 63
     7
 74
     1
 91
        4
 64
     7
 65
   257
 75
     1
175
     1
 42
1.0
 92
        0
 66
   257
 43
1.0
 76
     1
 77
     6
 78
     2
 67
     7
 79
     3
170
     0
171
     0
290
     0
174
     0
 93
        1
 44
0.0
173
     0
291
     0
 45
0.0
1001
ACAD
1000
AcDbSavedByObjectVersion
1070
     0
  0
VISUALSTYLE
  5
40
102
{ACAD_REACTORS
330
2A
102
}
102
{ACAD_XDICTIONARY
360
3AA
102
}
330
2A
100
AcDbVisualStyle
  2
X-Ray
 70
    25
 71
     2
 72
     2
 73
     1
 90
        1
 40
0.5
 41
30.0
 62
     5
 63
     7
 74
     1
 91
        0
 64
     7
 65
   257
 75
     1
175
     1
 42
1.0
 92
        8
 66
     7
 43
1.0
 76
     1
 77
     6
 78
     2
 67
     7
 79
     3
170
     0
171
     0
290
     0
174
     0
 93
       13
 44
0.0
173
     0
291
     0
 45
0.0
1001
ACAD
1000
AcDbSavedByObjectVersion
1070
     0
  0
DICTIONARYVAR
  5
37E
102
{ACAD_REACTORS
330
374
102
}
330
374
100
DictionaryVariables
280
     0
  1
1:1
  0
DICTIONARYVAR
  5
37B
102
{ACAD_REACTORS
330
374
102
}
330
374
100
DictionaryVariables
280
     0
  1
2
  0
DICTIONARYVAR
  5
37C
102
{ACAD_REACTORS
330
374
102
}
330
374
100
DictionaryVariables
280
     0
  1
1
  0
DICTIONARYVAR
  5
37F
102
{ACAD_REACTORS
330
374
102
}
330
374
100
DictionaryVariables
280
     0
  1
1
  0
DICTIONARYVAR
  5
378
102
{ACAD_REACTORS
330
374
102
}
330
374
100
DictionaryVariables
280
     0
  1
80.000000
  0
DICTIONARYVAR
  5
377
102
{ACAD_REACTORS
330
374
102
}
330
374
100
DictionaryVariables
280
     0
  1
5.000000
  0
DICTIONARY
  5
3B2
330
45
100
AcDbDictionary
280
     1
281
     1
  3
ACAD_XREC_ROUNDTRIP
360
3B3
  0
DICTIONARY
  5
3B0
330
44
100
AcDbDictionary
280
     1
281
     1
  3
ACAD_XREC_ROUNDTRIP
360
3B1
  0
DICTIONARY
  5
3B4
330
46
100
AcDbDictionary
280
     1
281
     1
  3
ACAD_XREC_ROUNDTRIP
360
3B5
  0
DICTIONARY
  5
388
330
2F
100
AcDbDictionary
280
     1
281
     1
  3
ACAD_XREC_ROUNDTRIP
360
389
  0
DICTIONARY
  5
38E
330
32
100
AcDbDictionary
280
     1
281
     1
  3
ACAD_XREC_ROUNDTRIP
360
38F
  0
DICTIONARY
  5
396
330
36
100
AcDbDictionary
280
     1
281
     1
  3
ACAD_XREC_ROUNDTRIP
360
397
  0
DICTIONARY
  5
39E
330
3A
100
AcDbDictionary
280
     1
281
     1
  3
ACAD_XREC_ROUNDTRIP
360
39F
  0
DICTIONARY
  5
392
330
34
100
AcDbDictionary
280
     1
281
     1
  3
ACAD_XREC_ROUNDTRIP
360
393
  0
DICTIONARY
  5
394
330
35
100
AcDbDictionary
280
     1
281
     1
  3
ACAD_XREC_ROUNDTRIP
360
395
  0
DICTIONARY
  5
3A4
330
3D
100
AcDbDictionary
280
     1
281
     1
  3
ACAD_XREC_ROUNDTRIP
360
3A5
  0
DICTIONARY
  5
39C
330
39
100
AcDbDictionary
280
     1
281
     1
  3
ACAD_XREC_ROUNDTRIP
360
39D
  0
DICTIONARY
  5
380
330
2B
100
AcDbDictionary
280
     1
281
     1
  3
ACAD_XREC_ROUNDTRIP
360
381
  0
DICTIONARY
  5
382
330
2C
100
AcDbDictionary
280
     1
281
     1
  3
ACAD_XREC_ROUNDTRIP
360
383
  0
DICTIONARY
  5
384
330
2D
100
AcDbDictionary
280
     1
281
     1
  3
ACAD_XREC_ROUNDTRIP
360
385
  0
DICTIONARY
  5
386
330
2E
100
AcDbDictionary
280
     1
281
     1
  3
ACAD_XREC_ROUNDTRIP
360
387
  0
DICTIONARY
  5
38C
330
31
100
AcDbDictionary
280
     1
281
     1
  3
ACAD_XREC_ROUNDTRIP
360
38D
  0
DICTIONARY
  5
3A0
330
3B
100
AcDbDictionary
280
     1
281
     1
  3
ACAD_XREC_ROUNDTRIP
360
3A1
  0
DICTIONARY
  5
39A
330
38
100
AcDbDictionary
280
     1
281
     1
  3
ACAD_XREC_ROUNDTRIP
360
39B
  0
DICTIONARY
  5
3A2
330
3C
100
AcDbDictionary
280
     1
281
     1
  3
ACAD_XREC_ROUNDTRIP
360
3A3
  0
DICTIONARY
  5
390
330
33
100
AcDbDictionary
280
     1
281
     1
  3
ACAD_XREC_ROUNDTRIP
360
391
  0
DICTIONARY
  5
3AE
330
42
100
AcDbDictionary
280
     1
281
     1
  3
ACAD_XREC_ROUNDTRIP
360
3AF
  0
DICTIONARY
  5
3AC
330
41
100
AcDbDictionary
280
     1
281
     1
  3
ACAD_XREC_ROUNDTRIP
360
3AD
  0
DICTIONARY
  5
3A6
330
3E
100
AcDbDictionary
280
     1
281
     1
  3
ACAD_XREC_ROUNDTRIP
360
3A7
  0
DICTIONARY
  5
3A8
330
3F
100
AcDbDictionary
280
     1
281
     1
  3
ACAD_XREC_ROUNDTRIP
360
3A9
  0
DICTIONARY
  5
398
330
37
100
AcDbDictionary
280
     1
281
     1
  3
ACAD_XREC_ROUNDTRIP
360
399
  0
DICTIONARY
  5
38A
330
30
100
AcDbDictionary
280
     1
281
     1
  3
ACAD_XREC_ROUNDTRIP
360
38B
  0
DICTIONARY
  5
3AA
330
40
100
AcDbDictionary
280
     1
281
     1
  3
ACAD_XREC_ROUNDTRIP
360
3AB
  0
XRECORD
  5
3B3
102
{ACAD_REACTORS
330
3B2
102
}
330
3B2
100
AcDbXrecord
280
     1
102
MATERIAL
148
0.0
149
0.0
149
0.0
 93
        0
 94
      127
282
     0
 72
     1
 77
     1
171
     1
175
     1
179
     1
273
     0
  0
XRECORD
  5
3B1
102
{ACAD_REACTORS
330
3B0
102
}
330
3B0
100
AcDbXrecord
280
     1
102
MATERIAL
148
0.0
149
0.0
149
0.0
 93
        0
 94
      127
282
     0
 72
     1
 77
     1
171
     1
175
     1
179
     1
273
     0
  0
XRECORD
  5
3B5
102
{ACAD_REACTORS
330
3B4
102
}
330
3B4
100
AcDbXrecord
280
     1
102
MATERIAL
148
0.0
149
0.0
149
0.0
 93
        0
 94
      127
282
     0
 72
     1
 77
     1
171
     1
175
     1
179
     1
273
     0
  0
XRECORD
  5
389
102
{ACAD_REACTORS
330
388
102
}
330
388
100
AcDbXrecord
280
     1
102
RTVSPropertyOp0
 70
     1
102
RTVSPropertyOp1
 70
     1
102
RTVSPropertyOp2
 70
     1
102
RTVSPropertyOp3
 70
     1
102
RTVSPropertyOp4
 70
     1
102
RTVSPropertyOp5
 70
     1
102
RTVSPropertyOp6
 70
     1
102
RTVSPropertyOp7
 70
     1
102
RTVSPropertyOp8
 70
     1
102
RTVSPropertyOp9
 70
     1
102
RTVSPropertyOp10
 70
     1
102
RTVSPropertyOp11
 70
     1
102
RTVSPropertyOp12
 70
     1
102
RTVSPropertyOp13
 70
     1
102
RTVSPropertyOp14
 70
     1
102
RTVSPropertyOp15
 70
     1
102
RTVSPropertyOp16
 70
     1
102
RTVSPropertyOp17
 70
     1
102
RTVSPropertyOp18
 70
     1
102
RTVSPropertyOp19
 70
     1
102
RTVSPropertyOp20
 70
     1
102
RTVSPropertyOp21
 70
     1
102
RTVSPropertyOp22
 70
     1
102
RTVSPropertyOp23
 70
     1
102
RTVSPropertyOp24
 70
     1
102
RTVSPropertyOp25
 70
     1
102
RTVSPropertyOp26
 70
     1
102
RTVSPropertyOp27
 70
     1
102
RTVSPropertyOp28
 70
     1
102
RTVSPropertyOp29
 70
     1
102
RTVSPropertyOp30
 70
     1
102
RTVSPropertyOp31
 70
     1
102
RTVSPropertyOp32
 70
     1
102
RTVSPropertyOp33
 70
     1
102
RTVSPropertyOp34
 70
     1
102
RTVSPropertyOp35
 70
     1
102
RTVSPropertyOp36
 70
     1
102
RTVSPropertyOp37
 70
     1
102
RTVSPropertyOp38
 70
     1
102
RTVSPropertyOp39
 70
     1
102
RTVSPropertyOp40
 70
     1
102
RTVSPropertyOp41
 70
     1
102
RTVSPropertyOp42
 70
     1
102
RTVSPropertyOp43
 70
     1
102
RTVSPropertyOp44
 70
     1
102
RTVSPropertyOp45
 70
     1
102
RTVSPropertyOp46
 70
     1
102
RTVSPropertyOp47
 70
     1
102
RTVSPropertyOp48
 70
     1
102
RTVSPropertyOp49
 70
     1
102
RTVSPropertyOp50
 70
     1
102
RTVSPropertyOp51
 70
     0
102
RTVSPropertyOp52
 70
     0
102
RTVSPropertyOp53
 70
     1
102
RTVSPropertyOp54
 70
     1
102
RTVSPropertyOp55
 70
     1
102
RTVSPropertyOp56
 70
     1
102
RTVSPropertyOp57
 70
     1
102
RTVSPost2010Prop28
280
     1
102
RTVSPost2010PropOp28
 70
     1
102
RTVSPost2010Prop29
280
     1
102
RTVSPost2010PropOp29
 70
     1
102
RTVSPost2010Prop30
280
     0
102
RTVSPost2010PropOp30
 70
     1
102
RTVSPost2010Prop31
280
     0
102
RTVSPost2010PropOp31
 70
     1
102
RTVSPost2010Prop32
280
     0
102
RTVSPost2010PropOp32
 70
     1
102
RTVSPost2010Prop33
280
     0
102
RTVSPost2010PropOp33
 70
     1
102
RTVSPost2010Prop34
280
     0
102
RTVSPost2010PropOp34
 70
     1
102
RTVSPost2010Prop35
280
     0
102
RTVSPost2010PropOp35
 70
     1
102
RTVSPost2010Prop36
280
     0
102
RTVSPost2010PropOp36
 70
     1
102
RTVSPost2010Prop37
 90
       50
102
RTVSPost2010PropOp37
 70
     1
102
RTVSPost2010Prop38
140
0.0
102
RTVSPost2010PropOp38
 70
     1
102
RTVSPost2010Prop39
140
1.0
102
RTVSPost2010PropOp39
 70
     1
102
RTVSPost2010Prop40
 90
        0
102
RTVSPost2010PropOp40
 70
     1
102
RTVSPost2010Prop41ColorIndex
 90
       18
102
RTVSPost2010Prop41ColorRGB
 90
        0
102
RTVSPost2010PropOp41
 70
     1
102
RTVSPost2010Prop42
 90
       50
102
RTVSPost2010PropOp42
 70
     1
102
RTVSPost2010Prop43
 90
        3
102
RTVSPost2010PropOp43
 70
     1
102
RTVSPost2010Prop44ColorIndex
 90
        5
102
RTVSPost2010Prop44ColorRGB
 90
      255
102
RTVSPost2010PropOp44
 70
     1
102
RTVSPost2010Prop45
280
     0
102
RTVSPost2010PropOp45
 70
     1
102
RTVSPost2010Prop46
 90
       50
102
RTVSPost2010PropOp46
 70
     1
102
RTVSPost2010Prop47
 90
       50
102
RTVSPost2010PropOp47
 70
     1
102
RTVSPost2010Prop48
 90
       50
102
RTVSPost2010PropOp48
 70
     1
102
RTVSPost2010Prop49
280
     0
102
RTVSPost2010PropOp49
 70
     1
102
RTVSPost2010Prop50
 90
       50
102
RTVSPost2010PropOp50
 70
     1
102
RTVSPost2010Prop51ColorIndex
 90
      256
102
RTVSPost2010Prop51ColorRGB
 90
-16777216
102
RTVSPost2010PropOp51
 70
     0
102
RTVSPost2010Prop52
140
1.0
102
RTVSPost2010PropOp52
 70
     0
102
RTVSPost2010Prop53
 90
        2
102
RTVSPost2010PropOp53
 70
     1
102
RTVSPost2010Prop54
  1
strokes_ogs.tif
102
RTVSPost2010PropOp54
 70
     1
102
RTVSPost2010Prop55
280
     0
102
RTVSPost2010PropOp55
 70
     1
102
RTVSPost2010Prop56
140
1.0
102
RTVSPost2010PropOp56
 70
     1
102
RTVSPost2010Prop57
140
1.0
102
RTVSPost2010PropOp57
 70
     1
  0
XRECORD
  5
38F
102
{ACAD_REACTORS
330
38E
102
}
330
38E
100
AcDbXrecord
280
     1
102
RTVSPropertyOp0
 70
     1
102
RTVSPropertyOp1
 70
     1
102
RTVSPropertyOp2
 70
     1
102
RTVSPropertyOp3
 70
     1
102
RTVSPropertyOp4
 70
     1
102
RTVSPropertyOp5
 70
     1
102
RTVSPropertyOp6
 70
     1
102
RTVSPropertyOp7
 70
     1
102
RTVSPropertyOp8
 70
     1
102
RTVSPropertyOp9
 70
     1
102
RTVSPropertyOp10
 70
     1
102
RTVSPropertyOp11
 70
     1
102
RTVSPropertyOp12
 70
     1
102
RTVSPropertyOp13
 70
     1
102
RTVSPropertyOp14
 70
     1
102
RTVSPropertyOp15
 70
     1
102
RTVSPropertyOp16
 70
     1
102
RTVSPropertyOp17
 70
     1
102
RTVSPropertyOp18
 70
     1
102
RTVSPropertyOp19
 70
     1
102
RTVSPropertyOp20
 70
     1
102
RTVSPropertyOp21
 70
     1
102
RTVSPropertyOp22
 70
     1
102
RTVSPropertyOp23
 70
     1
102
RTVSPropertyOp24
 70
     1
102
RTVSPropertyOp25
 70
     1
102
RTVSPropertyOp26
 70
     1
102
RTVSPropertyOp27
 70
     1
102
RTVSPropertyOp28
 70
     1
102
RTVSPropertyOp29
 70
     1
102
RTVSPropertyOp30
 70
     1
102
RTVSPropertyOp31
 70
     1
102
RTVSPropertyOp32
 70
     1
102
RTVSPropertyOp33
 70
     1
102
RTVSPropertyOp34
 70
     1
102
RTVSPropertyOp35
 70
     1
102
RTVSPropertyOp36
 70
     1
102
RTVSPropertyOp37
 70
     1
102
RTVSPropertyOp38
 70
     1
102
RTVSPropertyOp39
 70
     1
102
RTVSPropertyOp40
 70
     1
102
RTVSPropertyOp41
 70
     1
102
RTVSPropertyOp42
 70
     1
102
RTVSPropertyOp43
 70
     1
102
RTVSPropertyOp44
 70
     1
102
RTVSPropertyOp45
 70
     1
102
RTVSPropertyOp46
 70
     1
102
RTVSPropertyOp47
 70
     1
102
RTVSPropertyOp48
 70
     1
102
RTVSPropertyOp49
 70
     1
102
RTVSPropertyOp50
 70
     1
102
RTVSPropertyOp51
 70
     0
102
RTVSPropertyOp52
 70
     0
102
RTVSPropertyOp53
 70
     1
102
RTVSPropertyOp54
 70
     1
102
RTVSPropertyOp55
 70
     1
102
RTVSPropertyOp56
 70
     1
102
RTVSPropertyOp57
 70
     1
102
RTVSPost2010Prop28
280
     0
102
RTVSPost2010PropOp28
 70
     1
102
RTVSPost2010Prop29
280
     1
102
RTVSPost2010PropOp29
 70
     1
102
RTVSPost2010Prop30
280
     1
102
RTVSPost2010PropOp30
 70
     1
102
RTVSPost2010Prop31
280
     0
102
RTVSPost2010PropOp31
 70
     1
102
RTVSPost2010Prop32
280
     0
102
RTVSPost2010PropOp32
 70
     1
102
RTVSPost2010Prop33
280
     0
102
RTVSPost2010PropOp33
 70
     1
102
RTVSPost2010Prop34
280
     0
102
RTVSPost2010PropOp34
 70
     1
102
RTVSPost2010Prop35
280
     0
102
RTVSPost2010PropOp35
 70
     1
102
RTVSPost2010Prop36
280
     0
102
RTVSPost2010PropOp36
 70
     1
102
RTVSPost2010Prop37
 90
       50
102
RTVSPost2010PropOp37
 70
     1
102
RTVSPost2010Prop38
140
0.0
102
RTVSPost2010PropOp38
 70
     1
102
RTVSPost2010Prop39
140
1.0
102
RTVSPost2010PropOp39
 70
     1
102
RTVSPost2010Prop40
 90
        0
102
RTVSPost2010PropOp40
 70
     1
102
RTVSPost2010Prop41ColorIndex
 90
       18
102
RTVSPost2010Prop41ColorRGB
 90
        0
102
RTVSPost2010PropOp41
 70
     1
102
RTVSPost2010Prop42
 90
       50
102
RTVSPost2010PropOp42
 70
     1
102
RTVSPost2010Prop43
 90
        3
102
RTVSPost2010PropOp43
 70
     1
102
RTVSPost2010Prop44ColorIndex
 90
        5
102
RTVSPost2010Prop44ColorRGB
 90
      255
102
RTVSPost2010PropOp44
 70
     1
102
RTVSPost2010Prop45
280
     0
102
RTVSPost2010PropOp45
 70
     1
102
RTVSPost2010Prop46
 90
       50
102
RTVSPost2010PropOp46
 70
     1
102
RTVSPost2010Prop47
 90
       50
102
RTVSPost2010PropOp47
 70
     1
102
RTVSPost2010Prop48
 90
       50
102
RTVSPost2010PropOp48
 70
     1
102
RTVSPost2010Prop49
280
     0
102
RTVSPost2010PropOp49
 70
     1
102
RTVSPost2010Prop50
 90
       50
102
RTVSPost2010PropOp50
 70
     1
102
RTVSPost2010Prop51ColorIndex
 90
      256
102
RTVSPost2010Prop51ColorRGB
 90
-16777216
102
RTVSPost2010PropOp51
 70
     0
102
RTVSPost2010Prop52
140
1.0
102
RTVSPost2010PropOp52
 70
     0
102
RTVSPost2010Prop53
 90
        2
102
RTVSPost2010PropOp53
 70
     1
102
RTVSPost2010Prop54
  1
strokes_ogs.tif
102
RTVSPost2010PropOp54
 70
     1
102
RTVSPost2010Prop55
280
     0
102
RTVSPost2010PropOp55
 70
     1
102
RTVSPost2010Prop56
140
1.0
102
RTVSPost2010PropOp56
 70
     1
102
RTVSPost2010Prop57
140
1.0
102
RTVSPost2010PropOp57
 70
     1
  0
XRECORD
  5
397
102
{ACAD_REACTORS
330
396
102
}
330
396
100
AcDbXrecord
280
     1
102
RTVSPropertyOp0
 70
     1
102
RTVSPropertyOp1
 70
     1
102
RTVSPropertyOp2
 70
     1
102
RTVSPropertyOp3
 70
     1
102
RTVSPropertyOp4
 70
     1
102
RTVSPropertyOp5
 70
     1
102
RTVSPropertyOp6
 70
     1
102
RTVSPropertyOp7
 70
     1
102
RTVSPropertyOp8
 70
     1
102
RTVSPropertyOp9
 70
     1
102
RTVSPropertyOp10
 70
     1
102
RTVSPropertyOp11
 70
     1
102
RTVSPropertyOp12
 70
     1
102
RTVSPropertyOp13
 70
     1
102
RTVSPropertyOp14
 70
     1
102
RTVSPropertyOp15
 70
     1
102
RTVSPropertyOp16
 70
     1
102
RTVSPropertyOp17
 70
     1
102
RTVSPropertyOp18
 70
     1
102
RTVSPropertyOp19
 70
     1
102
RTVSPropertyOp20
 70
     1
102
RTVSPropertyOp21
 70
     1
102
RTVSPropertyOp22
 70
     1
102
RTVSPropertyOp23
 70
     1
102
RTVSPropertyOp24
 70
     1
102
RTVSPropertyOp25
 70
     1
102
RTVSPropertyOp26
 70
     1
102
RTVSPropertyOp27
 70
     1
102
RTVSPropertyOp28
 70
     1
102
RTVSPropertyOp29
 70
     1
102
RTVSPropertyOp30
 70
     1
102
RTVSPropertyOp31
 70
     1
102
RTVSPropertyOp32
 70
     1
102
RTVSPropertyOp33
 70
     1
102
RTVSPropertyOp34
 70
     1
102
RTVSPropertyOp35
 70
     1
102
RTVSPropertyOp36
 70
     1
102
RTVSPropertyOp37
 70
     1
102
RTVSPropertyOp38
 70
     1
102
RTVSPropertyOp39
 70
     1
102
RTVSPropertyOp40
 70
     1
102
RTVSPropertyOp41
 70
     1
102
RTVSPropertyOp42
 70
     1
102
RTVSPropertyOp43
 70
     1
102
RTVSPropertyOp44
 70
     1
102
RTVSPropertyOp45
 70
     1
102
RTVSPropertyOp46
 70
     1
102
RTVSPropertyOp47
 70
     1
102
RTVSPropertyOp48
 70
     1
102
RTVSPropertyOp49
 70
     1
102
RTVSPropertyOp50
 70
     1
102
RTVSPropertyOp51
 70
     0
102
RTVSPropertyOp52
 70
     0
102
RTVSPropertyOp53
 70
     1
102
RTVSPropertyOp54
 70
     1
102
RTVSPropertyOp55
 70
     1
102
RTVSPropertyOp56
 70
     1
102
RTVSPropertyOp57
 70
     1
102
RTVSPost2010Prop28
280
     0
102
RTVSPost2010PropOp28
 70
     1
102
RTVSPost2010Prop29
280
     1
102
RTVSPost2010PropOp29
 70
     1
102
RTVSPost2010Prop30
280
     1
102
RTVSPost2010PropOp30
 70
     1
102
RTVSPost2010Prop31
280
     0
102
RTVSPost2010PropOp31
 70
     1
102
RTVSPost2010Prop32
280
     0
102
RTVSPost2010PropOp32
 70
     1
102
RTVSPost2010Prop33
280
     0
102
RTVSPost2010PropOp33
 70
     1
102
RTVSPost2010Prop34
280
     0
102
RTVSPost2010PropOp34
 70
     1
102
RTVSPost2010Prop35
280
     0
102
RTVSPost2010PropOp35
 70
     1
102
RTVSPost2010Prop36
280
     0
102
RTVSPost2010PropOp36
 70
     1
102
RTVSPost2010Prop37
 90
       50
102
RTVSPost2010PropOp37
 70
     1
102
RTVSPost2010Prop38
140
0.0
102
RTVSPost2010PropOp38
 70
     1
102
RTVSPost2010Prop39
140
1.0
102
RTVSPost2010PropOp39
 70
     1
102
RTVSPost2010Prop40
 90
        0
102
RTVSPost2010PropOp40
 70
     1
102
RTVSPost2010Prop41ColorIndex
 90
       18
102
RTVSPost2010Prop41ColorRGB
 90
        0
102
RTVSPost2010PropOp41
 70
     1
102
RTVSPost2010Prop42
 90
       50
102
RTVSPost2010PropOp42
 70
     1
102
RTVSPost2010Prop43
 90
        3
102
RTVSPost2010PropOp43
 70
     1
102
RTVSPost2010Prop44ColorIndex
 90
        5
102
RTVSPost2010Prop44ColorRGB
 90
      255
102
RTVSPost2010PropOp44
 70
     1
102
RTVSPost2010Prop45
280
     0
102
RTVSPost2010PropOp45
 70
     1
102
RTVSPost2010Prop46
 90
       50
102
RTVSPost2010PropOp46
 70
     1
102
RTVSPost2010Prop47
 90
       50
102
RTVSPost2010PropOp47
 70
     1
102
RTVSPost2010Prop48
 90
       50
102
RTVSPost2010PropOp48
 70
     1
102
RTVSPost2010Prop49
280
     0
102
RTVSPost2010PropOp49
 70
     1
102
RTVSPost2010Prop50
 90
       50
102
RTVSPost2010PropOp50
 70
     1
102
RTVSPost2010Prop51ColorIndex
 90
      256
102
RTVSPost2010Prop51ColorRGB
 90
-16777216
102
RTVSPost2010PropOp51
 70
     0
102
RTVSPost2010Prop52
140
1.0
102
RTVSPost2010PropOp52
 70
     0
102
RTVSPost2010Prop53
 90
        2
102
RTVSPost2010PropOp53
 70
     1
102
RTVSPost2010Prop54
  1
strokes_ogs.tif
102
RTVSPost2010PropOp54
 70
     1
102
RTVSPost2010Prop55
280
     0
102
RTVSPost2010PropOp55
 70
     1
102
RTVSPost2010Prop56
140
1.0
102
RTVSPost2010PropOp56
 70
     1
102
RTVSPost2010Prop57
140
1.0
102
RTVSPost2010PropOp57
 70
     1
  0
XRECORD
  5
39F
102
{ACAD_REACTORS
330
39E
102
}
330
39E
100
AcDbXrecord
280
     1
102
RTVSPropertyOp0
 70
     1
102
RTVSPropertyOp1
 70
     1
102
RTVSPropertyOp2
 70
     1
102
RTVSPropertyOp3
 70
     1
102
RTVSPropertyOp4
 70
     1
102
RTVSPropertyOp5
 70
     1
102
RTVSPropertyOp6
 70
     1
102
RTVSPropertyOp7
 70
     1
102
RTVSPropertyOp8
 70
     1
102
RTVSPropertyOp9
 70
     1
102
RTVSPropertyOp10
 70
     1
102
RTVSPropertyOp11
 70
     1
102
RTVSPropertyOp12
 70
     1
102
RTVSPropertyOp13
 70
     1
102
RTVSPropertyOp14
 70
     1
102
RTVSPropertyOp15
 70
     1
102
RTVSPropertyOp16
 70
     1
102
RTVSPropertyOp17
 70
     1
102
RTVSPropertyOp18
 70
     1
102
RTVSPropertyOp19
 70
     1
102
RTVSPropertyOp20
 70
     1
102
RTVSPropertyOp21
 70
     1
102
RTVSPropertyOp22
 70
     1
102
RTVSPropertyOp23
 70
     1
102
RTVSPropertyOp24
 70
     1
102
RTVSPropertyOp25
 70
     1
102
RTVSPropertyOp26
 70
     1
102
RTVSPropertyOp27
 70
     1
102
RTVSPropertyOp28
 70
     1
102
RTVSPropertyOp29
 70
     1
102
RTVSPropertyOp30
 70
     1
102
RTVSPropertyOp31
 70
     1
102
RTVSPropertyOp32
 70
     1
102
RTVSPropertyOp33
 70
     1
102
RTVSPropertyOp34
 70
     1
102
RTVSPropertyOp35
 70
     1
102
RTVSPropertyOp36
 70
     1
102
RTVSPropertyOp37
 70
     1
102
RTVSPropertyOp38
 70
     1
102
RTVSPropertyOp39
 70
     1
102
RTVSPropertyOp40
 70
     1
102
RTVSPropertyOp41
 70
     1
102
RTVSPropertyOp42
 70
     1
102
RTVSPropertyOp43
 70
     1
102
RTVSPropertyOp44
 70
     1
102
RTVSPropertyOp45
 70
     1
102
RTVSPropertyOp46
 70
     1
102
RTVSPropertyOp47
 70
     1
102
RTVSPropertyOp48
 70
     1
102
RTVSPropertyOp49
 70
     1
102
RTVSPropertyOp50
 70
     1
102
RTVSPropertyOp51
 70
     0
102
RTVSPropertyOp52
 70
     0
102
RTVSPropertyOp53
 70
     1
102
RTVSPropertyOp54
 70
     1
102
RTVSPropertyOp55
 70
     1
102
RTVSPropertyOp56
 70
     1
102
RTVSPropertyOp57
 70
     1
102
RTVSPost2010Prop28
280
     0
102
RTVSPost2010PropOp28
 70
     1
102
RTVSPost2010Prop29
280
     1
102
RTVSPost2010PropOp29
 70
     1
102
RTVSPost2010Prop30
280
     1
102
RTVSPost2010PropOp30
 70
     1
102
RTVSPost2010Prop31
280
     0
102
RTVSPost2010PropOp31
 70
     1
102
RTVSPost2010Prop32
280
     0
102
RTVSPost2010PropOp32
 70
     1
102
RTVSPost2010Prop33
280
     0
102
RTVSPost2010PropOp33
 70
     1
102
RTVSPost2010Prop34
280
     0
102
RTVSPost2010PropOp34
 70
     1
102
RTVSPost2010Prop35
280
     0
102
RTVSPost2010PropOp35
 70
     1
102
RTVSPost2010Prop36
280
     0
102
RTVSPost2010PropOp36
 70
     1
102
RTVSPost2010Prop37
 90
       50
102
RTVSPost2010PropOp37
 70
     1
102
RTVSPost2010Prop38
140
0.0
102
RTVSPost2010PropOp38
 70
     1
102
RTVSPost2010Prop39
140
1.0
102
RTVSPost2010PropOp39
 70
     1
102
RTVSPost2010Prop40
 90
        0
102
RTVSPost2010PropOp40
 70
     1
102
RTVSPost2010Prop41ColorIndex
 90
       18
102
RTVSPost2010Prop41ColorRGB
 90
        0
102
RTVSPost2010PropOp41
 70
     1
102
RTVSPost2010Prop42
 90
       50
102
RTVSPost2010PropOp42
 70
     1
102
RTVSPost2010Prop43
 90
        3
102
RTVSPost2010PropOp43
 70
     1
102
RTVSPost2010Prop44ColorIndex
 90
        5
102
RTVSPost2010Prop44ColorRGB
 90
      255
102
RTVSPost2010PropOp44
 70
     1
102
RTVSPost2010Prop45
280
     0
102
RTVSPost2010PropOp45
 70
     1
102
RTVSPost2010Prop46
 90
       50
102
RTVSPost2010PropOp46
 70
     1
102
RTVSPost2010Prop47
 90
       50
102
RTVSPost2010PropOp47
 70
     1
102
RTVSPost2010Prop48
 90
       50
102
RTVSPost2010PropOp48
 70
     1
102
RTVSPost2010Prop49
280
     0
102
RTVSPost2010PropOp49
 70
     1
102
RTVSPost2010Prop50
 90
       50
102
RTVSPost2010PropOp50
 70
     1
102
RTVSPost2010Prop51ColorIndex
 90
      256
102
RTVSPost2010Prop51ColorRGB
 90
-16777216
102
RTVSPost2010PropOp51
 70
     0
102
RTVSPost2010Prop52
140
1.0
102
RTVSPost2010PropOp52
 70
     0
102
RTVSPost2010Prop53
 90
        2
102
RTVSPost2010PropOp53
 70
     1
102
RTVSPost2010Prop54
  1
strokes_ogs.tif
102
RTVSPost2010PropOp54
 70
     1
102
RTVSPost2010Prop55
280
     0
102
RTVSPost2010PropOp55
 70
     1
102
RTVSPost2010Prop56
140
1.0
102
RTVSPost2010PropOp56
 70
     1
102
RTVSPost2010Prop57
140
1.0
102
RTVSPost2010PropOp57
 70
     1
  0
XRECORD
  5
393
102
{ACAD_REACTORS
330
392
102
}
330
392
100
AcDbXrecord
280
     1
102
RTVSPropertyOp0
 70
     1
102
RTVSPropertyOp1
 70
     1
102
RTVSPropertyOp2
 70
     1
102
RTVSPropertyOp3
 70
     1
102
RTVSPropertyOp4
 70
     1
102
RTVSPropertyOp5
 70
     1
102
RTVSPropertyOp6
 70
     1
102
RTVSPropertyOp7
 70
     1
102
RTVSPropertyOp8
 70
     1
102
RTVSPropertyOp9
 70
     1
102
RTVSPropertyOp10
 70
     1
102
RTVSPropertyOp11
 70
     1
102
RTVSPropertyOp12
 70
     1
102
RTVSPropertyOp13
 70
     1
102
RTVSPropertyOp14
 70
     1
102
RTVSPropertyOp15
 70
     1
102
RTVSPropertyOp16
 70
     1
102
RTVSPropertyOp17
 70
     1
102
RTVSPropertyOp18
 70
     1
102
RTVSPropertyOp19
 70
     1
102
RTVSPropertyOp20
 70
     1
102
RTVSPropertyOp21
 70
     1
102
RTVSPropertyOp22
 70
     1
102
RTVSPropertyOp23
 70
     1
102
RTVSPropertyOp24
 70
     1
102
RTVSPropertyOp25
 70
     1
102
RTVSPropertyOp26
 70
     1
102
RTVSPropertyOp27
 70
     1
102
RTVSPropertyOp28
 70
     1
102
RTVSPropertyOp29
 70
     1
102
RTVSPropertyOp30
 70
     1
102
RTVSPropertyOp31
 70
     1
102
RTVSPropertyOp32
 70
     1
102
RTVSPropertyOp33
 70
     1
102
RTVSPropertyOp34
 70
     1
102
RTVSPropertyOp35
 70
     1
102
RTVSPropertyOp36
 70
     1
102
RTVSPropertyOp37
 70
     1
102
RTVSPropertyOp38
 70
     1
102
RTVSPropertyOp39
 70
     1
102
RTVSPropertyOp40
 70
     1
102
RTVSPropertyOp41
 70
     1
102
RTVSPropertyOp42
 70
     1
102
RTVSPropertyOp43
 70
     1
102
RTVSPropertyOp44
 70
     1
102
RTVSPropertyOp45
 70
     1
102
RTVSPropertyOp46
 70
     1
102
RTVSPropertyOp47
 70
     1
102
RTVSPropertyOp48
 70
     1
102
RTVSPropertyOp49
 70
     1
102
RTVSPropertyOp50
 70
     1
102
RTVSPropertyOp51
 70
     0
102
RTVSPropertyOp52
 70
     0
102
RTVSPropertyOp53
 70
     1
102
RTVSPropertyOp54
 70
     1
102
RTVSPropertyOp55
 70
     1
102
RTVSPropertyOp56
 70
     1
102
RTVSPropertyOp57
 70
     1
102
RTVSPost2010Prop28
280
     0
102
RTVSPost2010PropOp28
 70
     1
102
RTVSPost2010Prop29
280
     1
102
RTVSPost2010PropOp29
 70
     1
102
RTVSPost2010Prop30
280
     1
102
RTVSPost2010PropOp30
 70
     1
102
RTVSPost2010Prop31
280
     0
102
RTVSPost2010PropOp31
 70
     1
102
RTVSPost2010Prop32
280
     0
102
RTVSPost2010PropOp32
 70
     1
102
RTVSPost2010Prop33
280
     0
102
RTVSPost2010PropOp33
 70
     1
102
RTVSPost2010Prop34
280
     0
102
RTVSPost2010PropOp34
 70
     1
102
RTVSPost2010Prop35
280
     0
102
RTVSPost2010PropOp35
 70
     1
102
RTVSPost2010Prop36
280
     0
102
RTVSPost2010PropOp36
 70
     1
102
RTVSPost2010Prop37
 90
       50
102
RTVSPost2010PropOp37
 70
     1
102
RTVSPost2010Prop38
140
0.0
102
RTVSPost2010PropOp38
 70
     1
102
RTVSPost2010Prop39
140
1.0
102
RTVSPost2010PropOp39
 70
     1
102
RTVSPost2010Prop40
 90
        0
102
RTVSPost2010PropOp40
 70
     1
102
RTVSPost2010Prop41ColorIndex
 90
       18
102
RTVSPost2010Prop41ColorRGB
 90
        0
102
RTVSPost2010PropOp41
 70
     1
102
RTVSPost2010Prop42
 90
       50
102
RTVSPost2010PropOp42
 70
     1
102
RTVSPost2010Prop43
 90
        3
102
RTVSPost2010PropOp43
 70
     1
102
RTVSPost2010Prop44ColorIndex
 90
        5
102
RTVSPost2010Prop44ColorRGB
 90
      255
102
RTVSPost2010PropOp44
 70
     1
102
RTVSPost2010Prop45
280
     0
102
RTVSPost2010PropOp45
 70
     1
102
RTVSPost2010Prop46
 90
       50
102
RTVSPost2010PropOp46
 70
     1
102
RTVSPost2010Prop47
 90
       50
102
RTVSPost2010PropOp47
 70
     1
102
RTVSPost2010Prop48
 90
       50
102
RTVSPost2010PropOp48
 70
     1
102
RTVSPost2010Prop49
280
     0
102
RTVSPost2010PropOp49
 70
     1
102
RTVSPost2010Prop50
 90
       50
102
RTVSPost2010PropOp50
 70
     1
102
RTVSPost2010Prop51ColorIndex
 90
      256
102
RTVSPost2010Prop51ColorRGB
 90
-16777216
102
RTVSPost2010PropOp51
 70
     0
102
RTVSPost2010Prop52
140
1.0
102
RTVSPost2010PropOp52
 70
     0
102
RTVSPost2010Prop53
 90
        2
102
RTVSPost2010PropOp53
 70
     1
102
RTVSPost2010Prop54
  1
strokes_ogs.tif
102
RTVSPost2010PropOp54
 70
     1
102
RTVSPost2010Prop55
280
     0
102
RTVSPost2010PropOp55
 70
     1
102
RTVSPost2010Prop56
140
1.0
102
RTVSPost2010PropOp56
 70
     1
102
RTVSPost2010Prop57
140
1.0
102
RTVSPost2010PropOp57
 70
     1
  0
XRECORD
  5
395
102
{ACAD_REACTORS
330
394
102
}
330
394
100
AcDbXrecord
280
     1
102
RTVSPropertyOp0
 70
     1
102
RTVSPropertyOp1
 70
     1
102
RTVSPropertyOp2
 70
     1
102
RTVSPropertyOp3
 70
     1
102
RTVSPropertyOp4
 70
     1
102
RTVSPropertyOp5
 70
     1
102
RTVSPropertyOp6
 70
     1
102
RTVSPropertyOp7
 70
     1
102
RTVSPropertyOp8
 70
     1
102
RTVSPropertyOp9
 70
     1
102
RTVSPropertyOp10
 70
     1
102
RTVSPropertyOp11
 70
     1
102
RTVSPropertyOp12
 70
     1
102
RTVSPropertyOp13
 70
     1
102
RTVSPropertyOp14
 70
     1
102
RTVSPropertyOp15
 70
     1
102
RTVSPropertyOp16
 70
     1
102
RTVSPropertyOp17
 70
     1
102
RTVSPropertyOp18
 70
     1
102
RTVSPropertyOp19
 70
     1
102
RTVSPropertyOp20
 70
     1
102
RTVSPropertyOp21
 70
     1
102
RTVSPropertyOp22
 70
     1
102
RTVSPropertyOp23
 70
     1
102
RTVSPropertyOp24
 70
     1
102
RTVSPropertyOp25
 70
     1
102
RTVSPropertyOp26
 70
     1
102
RTVSPropertyOp27
 70
     1
102
RTVSPropertyOp28
 70
     1
102
RTVSPropertyOp29
 70
     1
102
RTVSPropertyOp30
 70
     1
102
RTVSPropertyOp31
 70
     1
102
RTVSPropertyOp32
 70
     1
102
RTVSPropertyOp33
 70
     1
102
RTVSPropertyOp34
 70
     1
102
RTVSPropertyOp35
 70
     1
102
RTVSPropertyOp36
 70
     1
102
RTVSPropertyOp37
 70
     1
102
RTVSPropertyOp38
 70
     1
102
RTVSPropertyOp39
 70
     1
102
RTVSPropertyOp40
 70
     1
102
RTVSPropertyOp41
 70
     1
102
RTVSPropertyOp42
 70
     1
102
RTVSPropertyOp43
 70
     1
102
RTVSPropertyOp44
 70
     1
102
RTVSPropertyOp45
 70
     1
102
RTVSPropertyOp46
 70
     1
102
RTVSPropertyOp47
 70
     1
102
RTVSPropertyOp48
 70
     1
102
RTVSPropertyOp49
 70
     1
102
RTVSPropertyOp50
 70
     1
102
RTVSPropertyOp51
 70
     0
102
RTVSPropertyOp52
 70
     0
102
RTVSPropertyOp53
 70
     1
102
RTVSPropertyOp54
 70
     1
102
RTVSPropertyOp55
 70
     1
102
RTVSPropertyOp56
 70
     1
102
RTVSPropertyOp57
 70
     1
102
RTVSPost2010Prop28
280
     0
102
RTVSPost2010PropOp28
 70
     1
102
RTVSPost2010Prop29
280
     1
102
RTVSPost2010PropOp29
 70
     1
102
RTVSPost2010Prop30
280
     1
102
RTVSPost2010PropOp30
 70
     1
102
RTVSPost2010Prop31
280
     0
102
RTVSPost2010PropOp31
 70
     1
102
RTVSPost2010Prop32
280
     0
102
RTVSPost2010PropOp32
 70
     1
102
RTVSPost2010Prop33
280
     0
102
RTVSPost2010PropOp33
 70
     1
102
RTVSPost2010Prop34
280
     0
102
RTVSPost2010PropOp34
 70
     1
102
RTVSPost2010Prop35
280
     0
102
RTVSPost2010PropOp35
 70
     1
102
RTVSPost2010Prop36
280
     0
102
RTVSPost2010PropOp36
 70
     1
102
RTVSPost2010Prop37
 90
       50
102
RTVSPost2010PropOp37
 70
     1
102
RTVSPost2010Prop38
140
0.0
102
RTVSPost2010PropOp38
 70
     1
102
RTVSPost2010Prop39
140
1.0
102
RTVSPost2010PropOp39
 70
     1
102
RTVSPost2010Prop40
 90
        0
102
RTVSPost2010PropOp40
 70
     1
102
RTVSPost2010Prop41ColorIndex
 90
       18
102
RTVSPost2010Prop41ColorRGB
 90
        0
102
RTVSPost2010PropOp41
 70
     1
102
RTVSPost2010Prop42
 90
       50
102
RTVSPost2010PropOp42
 70
     1
102
RTVSPost2010Prop43
 90
        3
102
RTVSPost2010PropOp43
 70
     1
102
RTVSPost2010Prop44ColorIndex
 90
        5
102
RTVSPost2010Prop44ColorRGB
 90
      255
102
RTVSPost2010PropOp44
 70
     1
102
RTVSPost2010Prop45
280
     0
102
RTVSPost2010PropOp45
 70
     1
102
RTVSPost2010Prop46
 90
       50
102
RTVSPost2010PropOp46
 70
     1
102
RTVSPost2010Prop47
 90
       50
102
RTVSPost2010PropOp47
 70
     1
102
RTVSPost2010Prop48
 90
       50
102
RTVSPost2010PropOp48
 70
     1
102
RTVSPost2010Prop49
280
     0
102
RTVSPost2010PropOp49
 70
     1
102
RTVSPost2010Prop50
 90
       50
102
RTVSPost2010PropOp50
 70
     1
102
RTVSPost2010Prop51ColorIndex
 90
      256
102
RTVSPost2010Prop51ColorRGB
 90
-16777216
102
RTVSPost2010PropOp51
 70
     0
102
RTVSPost2010Prop52
140
1.0
102
RTVSPost2010PropOp52
 70
     0
102
RTVSPost2010Prop53
 90
        2
102
RTVSPost2010PropOp53
 70
     1
102
RTVSPost2010Prop54
  1
strokes_ogs.tif
102
RTVSPost2010PropOp54
 70
     1
102
RTVSPost2010Prop55
280
     0
102
RTVSPost2010PropOp55
 70
     1
102
RTVSPost2010Prop56
140
1.0
102
RTVSPost2010PropOp56
 70
     1
102
RTVSPost2010Prop57
140
1.0
102
RTVSPost2010PropOp57
 70
     1
  0
XRECORD
  5
3A5
102
{ACAD_REACTORS
330
3A4
102
}
330
3A4
100
AcDbXrecord
280
     1
102
RTVSPropertyOp0
 70
     0
102
RTVSPropertyOp1
 70
     0
102
RTVSPropertyOp2
 70
     0
102
RTVSPropertyOp3
 70
     0
102
RTVSPropertyOp4
 70
     0
102
RTVSPropertyOp5
 70
     0
102
RTVSPropertyOp6
 70
     0
102
RTVSPropertyOp7
 70
     0
102
RTVSPropertyOp8
 70
     0
102
RTVSPropertyOp9
 70
     0
102
RTVSPropertyOp10
 70
     0
102
RTVSPropertyOp11
 70
     0
102
RTVSPropertyOp12
 70
     0
102
RTVSPropertyOp13
 70
     0
102
RTVSPropertyOp14
 70
     2
102
RTVSPropertyOp15
 70
     0
102
RTVSPropertyOp16
 70
     0
102
RTVSPropertyOp17
 70
     0
102
RTVSPropertyOp18
 70
     0
102
RTVSPropertyOp19
 70
     0
102
RTVSPropertyOp20
 70
     0
102
RTVSPropertyOp21
 70
     0
102
RTVSPropertyOp22
 70
     0
102
RTVSPropertyOp23
 70
     0
102
RTVSPropertyOp24
 70
     0
102
RTVSPropertyOp25
 70
     0
102
RTVSPropertyOp26
 70
     0
102
RTVSPropertyOp27
 70
     0
102
RTVSPropertyOp28
 70
     0
102
RTVSPropertyOp29
 70
     0
102
RTVSPropertyOp30
 70
     0
102
RTVSPropertyOp31
 70
     0
102
RTVSPropertyOp32
 70
     0
102
RTVSPropertyOp33
 70
     0
102
RTVSPropertyOp34
 70
     0
102
RTVSPropertyOp35
 70
     0
102
RTVSPropertyOp36
 70
     0
102
RTVSPropertyOp37
 70
     0
102
RTVSPropertyOp38
 70
     0
102
RTVSPropertyOp39
 70
     0
102
RTVSPropertyOp40
 70
     0
102
RTVSPropertyOp41
 70
     0
102
RTVSPropertyOp42
 70
     0
102
RTVSPropertyOp43
 70
     0
102
RTVSPropertyOp44
 70
     0
102
RTVSPropertyOp45
 70
     0
102
RTVSPropertyOp46
 70
     0
102
RTVSPropertyOp47
 70
     0
102
RTVSPropertyOp48
 70
     0
102
RTVSPropertyOp49
 70
     0
102
RTVSPropertyOp50
 70
     0
102
RTVSPropertyOp51
 70
     0
102
RTVSPropertyOp52
 70
     0
102
RTVSPropertyOp53
 70
     0
102
RTVSPropertyOp54
 70
     0
102
RTVSPropertyOp55
 70
     0
102
RTVSPropertyOp56
 70
     0
102
RTVSPropertyOp57
 70
     0
102
RTVSPost2010Prop28
280
     0
102
RTVSPost2010PropOp28
 70
     0
102
RTVSPost2010Prop29
280
     1
102
RTVSPost2010PropOp29
 70
     0
102
RTVSPost2010Prop30
280
     1
102
RTVSPost2010PropOp30
 70
     0
102
RTVSPost2010Prop31
280
     0
102
RTVSPost2010PropOp31
 70
     0
102
RTVSPost2010Prop32
280
     0
102
RTVSPost2010PropOp32
 70
     0
102
RTVSPost2010Prop33
280
     0
102
RTVSPost2010PropOp33
 70
     0
102
RTVSPost2010Prop34
280
     0
102
RTVSPost2010PropOp34
 70
     0
102
RTVSPost2010Prop35
280
     0
102
RTVSPost2010PropOp35
 70
     0
102
RTVSPost2010Prop36
280
     0
102
RTVSPost2010PropOp36
 70
     0
102
RTVSPost2010Prop37
 90
       50
102
RTVSPost2010PropOp37
 70
     0
102
RTVSPost2010Prop38
140
0.0
102
RTVSPost2010PropOp38
 70
     0
102
RTVSPost2010Prop39
140
1.0
102
RTVSPost2010PropOp39
 70
     0
102
RTVSPost2010Prop40
 90
        0
102
RTVSPost2010PropOp40
 70
     0
102
RTVSPost2010Prop41ColorIndex
 90
       18
102
RTVSPost2010Prop41ColorRGB
 90
        0
102
RTVSPost2010PropOp41
 70
     0
102
RTVSPost2010Prop42
 90
       50
102
RTVSPost2010PropOp42
 70
     0
102
RTVSPost2010Prop43
 90
        3
102
RTVSPost2010PropOp43
 70
     0
102
RTVSPost2010Prop44ColorIndex
 90
        5
102
RTVSPost2010Prop44ColorRGB
 90
      255
102
RTVSPost2010PropOp44
 70
     0
102
RTVSPost2010Prop45
280
     0
102
RTVSPost2010PropOp45
 70
     0
102
RTVSPost2010Prop46
 90
       50
102
RTVSPost2010PropOp46
 70
     0
102
RTVSPost2010Prop47
 90
       50
102
RTVSPost2010PropOp47
 70
     0
102
RTVSPost2010Prop48
 90
       50
102
RTVSPost2010PropOp48
 70
     0
102
RTVSPost2010Prop49
280
     0
102
RTVSPost2010PropOp49
 70
     0
102
RTVSPost2010Prop50
 90
       50
102
RTVSPost2010PropOp50
 70
     0
102
RTVSPost2010Prop51ColorIndex
 90
      256
102
RTVSPost2010Prop51ColorRGB
 90
-16777216
102
RTVSPost2010PropOp51
 70
     0
102
RTVSPost2010Prop52
140
1.0
102
RTVSPost2010PropOp52
 70
     0
102
RTVSPost2010Prop53
 90
        2
102
RTVSPost2010PropOp53
 70
     0
102
RTVSPost2010Prop54
  1
strokes_ogs.tif
102
RTVSPost2010PropOp54
 70
     0
102
RTVSPost2010Prop55
280
     0
102
RTVSPost2010PropOp55
 70
     0
102
RTVSPost2010Prop56
140
1.0
102
RTVSPost2010PropOp56
 70
     0
102
RTVSPost2010Prop57
140
1.0
102
RTVSPost2010PropOp57
 70
     0
  0
XRECORD
  5
39D
102
{ACAD_REACTORS
330
39C
102
}
330
39C
100
AcDbXrecord
280
     1
102
RTVSPropertyOp0
 70
     1
102
RTVSPropertyOp1
 70
     1
102
RTVSPropertyOp2
 70
     1
102
RTVSPropertyOp3
 70
     1
102
RTVSPropertyOp4
 70
     1
102
RTVSPropertyOp5
 70
     1
102
RTVSPropertyOp6
 70
     1
102
RTVSPropertyOp7
 70
     1
102
RTVSPropertyOp8
 70
     1
102
RTVSPropertyOp9
 70
     1
102
RTVSPropertyOp10
 70
     1
102
RTVSPropertyOp11
 70
     1
102
RTVSPropertyOp12
 70
     1
102
RTVSPropertyOp13
 70
     1
102
RTVSPropertyOp14
 70
     1
102
RTVSPropertyOp15
 70
     1
102
RTVSPropertyOp16
 70
     1
102
RTVSPropertyOp17
 70
     1
102
RTVSPropertyOp18
 70
     1
102
RTVSPropertyOp19
 70
     1
102
RTVSPropertyOp20
 70
     1
102
RTVSPropertyOp21
 70
     1
102
RTVSPropertyOp22
 70
     1
102
RTVSPropertyOp23
 70
     1
102
RTVSPropertyOp24
 70
     1
102
RTVSPropertyOp25
 70
     1
102
RTVSPropertyOp26
 70
     1
102
RTVSPropertyOp27
 70
     1
102
RTVSPropertyOp28
 70
     1
102
RTVSPropertyOp29
 70
     1
102
RTVSPropertyOp30
 70
     1
102
RTVSPropertyOp31
 70
     1
102
RTVSPropertyOp32
 70
     1
102
RTVSPropertyOp33
 70
     1
102
RTVSPropertyOp34
 70
     1
102
RTVSPropertyOp35
 70
     1
102
RTVSPropertyOp36
 70
     1
102
RTVSPropertyOp37
 70
     1
102
RTVSPropertyOp38
 70
     1
102
RTVSPropertyOp39
 70
     1
102
RTVSPropertyOp40
 70
     1
102
RTVSPropertyOp41
 70
     1
102
RTVSPropertyOp42
 70
     1
102
RTVSPropertyOp43
 70
     1
102
RTVSPropertyOp44
 70
     1
102
RTVSPropertyOp45
 70
     1
102
RTVSPropertyOp46
 70
     1
102
RTVSPropertyOp47
 70
     1
102
RTVSPropertyOp48
 70
     1
102
RTVSPropertyOp49
 70
     1
102
RTVSPropertyOp50
 70
     1
102
RTVSPropertyOp51
 70
     0
102
RTVSPropertyOp52
 70
     0
102
RTVSPropertyOp53
 70
     1
102
RTVSPropertyOp54
 70
     1
102
RTVSPropertyOp55
 70
     1
102
RTVSPropertyOp56
 70
     1
102
RTVSPropertyOp57
 70
     1
102
RTVSPost2010Prop28
280
     0
102
RTVSPost2010PropOp28
 70
     1
102
RTVSPost2010Prop29
280
     1
102
RTVSPost2010PropOp29
 70
     1
102
RTVSPost2010Prop30
280
     1
102
RTVSPost2010PropOp30
 70
     1
102
RTVSPost2010Prop31
280
     0
102
RTVSPost2010PropOp31
 70
     1
102
RTVSPost2010Prop32
280
     0
102
RTVSPost2010PropOp32
 70
     1
102
RTVSPost2010Prop33
280
     0
102
RTVSPost2010PropOp33
 70
     1
102
RTVSPost2010Prop34
280
     0
102
RTVSPost2010PropOp34
 70
     1
102
RTVSPost2010Prop35
280
     0
102
RTVSPost2010PropOp35
 70
     1
102
RTVSPost2010Prop36
280
     0
102
RTVSPost2010PropOp36
 70
     1
102
RTVSPost2010Prop37
 90
       50
102
RTVSPost2010PropOp37
 70
     1
102
RTVSPost2010Prop38
140
0.0
102
RTVSPost2010PropOp38
 70
     1
102
RTVSPost2010Prop39
140
1.0
102
RTVSPost2010PropOp39
 70
     1
102
RTVSPost2010Prop40
 90
        0
102
RTVSPost2010PropOp40
 70
     1
102
RTVSPost2010Prop41ColorIndex
 90
       18
102
RTVSPost2010Prop41ColorRGB
 90
        0
102
RTVSPost2010PropOp41
 70
     1
102
RTVSPost2010Prop42
 90
       50
102
RTVSPost2010PropOp42
 70
     1
102
RTVSPost2010Prop43
 90
        3
102
RTVSPost2010PropOp43
 70
     1
102
RTVSPost2010Prop44ColorIndex
 90
        5
102
RTVSPost2010Prop44ColorRGB
 90
      255
102
RTVSPost2010PropOp44
 70
     1
102
RTVSPost2010Prop45
280
     0
102
RTVSPost2010PropOp45
 70
     1
102
RTVSPost2010Prop46
 90
       50
102
RTVSPost2010PropOp46
 70
     1
102
RTVSPost2010Prop47
 90
       50
102
RTVSPost2010PropOp47
 70
     1
102
RTVSPost2010Prop48
 90
       50
102
RTVSPost2010PropOp48
 70
     1
102
RTVSPost2010Prop49
280
     0
102
RTVSPost2010PropOp49
 70
     1
102
RTVSPost2010Prop50
 90
       50
102
RTVSPost2010PropOp50
 70
     1
102
RTVSPost2010Prop51ColorIndex
 90
      256
102
RTVSPost2010Prop51ColorRGB
 90
-16777216
102
RTVSPost2010PropOp51
 70
     0
102
RTVSPost2010Prop52
140
1.0
102
RTVSPost2010PropOp52
 70
     0
102
RTVSPost2010Prop53
 90
        2
102
RTVSPost2010PropOp53
 70
     1
102
RTVSPost2010Prop54
  1
strokes_ogs.tif
102
RTVSPost2010PropOp54
 70
     1
102
RTVSPost2010Prop55
280
     0
102
RTVSPost2010PropOp55
 70
     1
102
RTVSPost2010Prop56
140
1.0
102
RTVSPost2010PropOp56
 70
     1
102
RTVSPost2010Prop57
140
1.0
102
RTVSPost2010PropOp57
 70
     1
  0
XRECORD
  5
381
102
{ACAD_REACTORS
330
380
102
}
330
380
100
AcDbXrecord
280
     1
102
RTVSPropertyOp0
 70
     1
102
RTVSPropertyOp1
 70
     1
102
RTVSPropertyOp2
 70
     1
102
RTVSPropertyOp3
 70
     1
102
RTVSPropertyOp4
 70
     1
102
RTVSPropertyOp5
 70
     1
102
RTVSPropertyOp6
 70
     1
102
RTVSPropertyOp7
 70
     1
102
RTVSPropertyOp8
 70
     1
102
RTVSPropertyOp9
 70
     1
102
RTVSPropertyOp10
 70
     1
102
RTVSPropertyOp11
 70
     1
102
RTVSPropertyOp12
 70
     1
102
RTVSPropertyOp13
 70
     1
102
RTVSPropertyOp14
 70
     1
102
RTVSPropertyOp15
 70
     1
102
RTVSPropertyOp16
 70
     1
102
RTVSPropertyOp17
 70
     1
102
RTVSPropertyOp18
 70
     1
102
RTVSPropertyOp19
 70
     1
102
RTVSPropertyOp20
 70
     1
102
RTVSPropertyOp21
 70
     1
102
RTVSPropertyOp22
 70
     1
102
RTVSPropertyOp23
 70
     1
102
RTVSPropertyOp24
 70
     1
102
RTVSPropertyOp25
 70
     1
102
RTVSPropertyOp26
 70
     1
102
RTVSPropertyOp27
 70
     1
102
RTVSPropertyOp28
 70
     1
102
RTVSPropertyOp29
 70
     1
102
RTVSPropertyOp30
 70
     1
102
RTVSPropertyOp31
 70
     1
102
RTVSPropertyOp32
 70
     1
102
RTVSPropertyOp33
 70
     1
102
RTVSPropertyOp34
 70
     1
102
RTVSPropertyOp35
 70
     1
102
RTVSPropertyOp36
 70
     1
102
RTVSPropertyOp37
 70
     1
102
RTVSPropertyOp38
 70
     1
102
RTVSPropertyOp39
 70
     1
102
RTVSPropertyOp40
 70
     1
102
RTVSPropertyOp41
 70
     1
102
RTVSPropertyOp42
 70
     1
102
RTVSPropertyOp43
 70
     1
102
RTVSPropertyOp44
 70
     1
102
RTVSPropertyOp45
 70
     1
102
RTVSPropertyOp46
 70
     1
102
RTVSPropertyOp47
 70
     1
102
RTVSPropertyOp48
 70
     1
102
RTVSPropertyOp49
 70
     1
102
RTVSPropertyOp50
 70
     1
102
RTVSPropertyOp51
 70
     0
102
RTVSPropertyOp52
 70
     0
102
RTVSPropertyOp53
 70
     1
102
RTVSPropertyOp54
 70
     1
102
RTVSPropertyOp55
 70
     1
102
RTVSPropertyOp56
 70
     1
102
RTVSPropertyOp57
 70
     1
102
RTVSPost2010Prop28
280
     0
102
RTVSPost2010PropOp28
 70
     1
102
RTVSPost2010Prop29
280
     1
102
RTVSPost2010PropOp29
 70
     1
102
RTVSPost2010Prop30
280
     1
102
RTVSPost2010PropOp30
 70
     1
102
RTVSPost2010Prop31
280
     0
102
RTVSPost2010PropOp31
 70
     1
102
RTVSPost2010Prop32
280
     0
102
RTVSPost2010PropOp32
 70
     1
102
RTVSPost2010Prop33
280
     0
102
RTVSPost2010PropOp33
 70
     1
102
RTVSPost2010Prop34
280
     0
102
RTVSPost2010PropOp34
 70
     1
102
RTVSPost2010Prop35
280
     0
102
RTVSPost2010PropOp35
 70
     1
102
RTVSPost2010Prop36
280
     0
102
RTVSPost2010PropOp36
 70
     1
102
RTVSPost2010Prop37
 90
       50
102
RTVSPost2010PropOp37
 70
     1
102
RTVSPost2010Prop38
140
0.0
102
RTVSPost2010PropOp38
 70
     1
102
RTVSPost2010Prop39
140
1.0
102
RTVSPost2010PropOp39
 70
     1
102
RTVSPost2010Prop40
 90
        0
102
RTVSPost2010PropOp40
 70
     1
102
RTVSPost2010Prop41ColorIndex
 90
       18
102
RTVSPost2010Prop41ColorRGB
 90
        0
102
RTVSPost2010PropOp41
 70
     1
102
RTVSPost2010Prop42
 90
       50
102
RTVSPost2010PropOp42
 70
     1
102
RTVSPost2010Prop43
 90
        3
102
RTVSPost2010PropOp43
 70
     1
102
RTVSPost2010Prop44ColorIndex
 90
        5
102
RTVSPost2010Prop44ColorRGB
 90
      255
102
RTVSPost2010PropOp44
 70
     1
102
RTVSPost2010Prop45
280
     0
102
RTVSPost2010PropOp45
 70
     1
102
RTVSPost2010Prop46
 90
       50
102
RTVSPost2010PropOp46
 70
     1
102
RTVSPost2010Prop47
 90
       50
102
RTVSPost2010PropOp47
 70
     1
102
RTVSPost2010Prop48
 90
       50
102
RTVSPost2010PropOp48
 70
     1
102
RTVSPost2010Prop49
280
     0
102
RTVSPost2010PropOp49
 70
     1
102
RTVSPost2010Prop50
 90
       50
102
RTVSPost2010PropOp50
 70
     1
102
RTVSPost2010Prop51ColorIndex
 90
      256
102
RTVSPost2010Prop51ColorRGB
 90
-16777216
102
RTVSPost2010PropOp51
 70
     0
102
RTVSPost2010Prop52
140
1.0
102
RTVSPost2010PropOp52
 70
     0
102
RTVSPost2010Prop53
 90
        2
102
RTVSPost2010PropOp53
 70
     1
102
RTVSPost2010Prop54
  1
strokes_ogs.tif
102
RTVSPost2010PropOp54
 70
     1
102
RTVSPost2010Prop55
280
     0
102
RTVSPost2010PropOp55
 70
     1
102
RTVSPost2010Prop56
140
1.0
102
RTVSPost2010PropOp56
 70
     1
102
RTVSPost2010Prop57
140
1.0
102
RTVSPost2010PropOp57
 70
     1
  0
XRECORD
  5
383
102
{ACAD_REACTORS
330
382
102
}
330
382
100
AcDbXrecord
280
     1
102
RTVSPropertyOp0
 70
     1
102
RTVSPropertyOp1
 70
     1
102
RTVSPropertyOp2
 70
     1
102
RTVSPropertyOp3
 70
     1
102
RTVSPropertyOp4
 70
     1
102
RTVSPropertyOp5
 70
     1
102
RTVSPropertyOp6
 70
     1
102
RTVSPropertyOp7
 70
     1
102
RTVSPropertyOp8
 70
     1
102
RTVSPropertyOp9
 70
     1
102
RTVSPropertyOp10
 70
     1
102
RTVSPropertyOp11
 70
     1
102
RTVSPropertyOp12
 70
     1
102
RTVSPropertyOp13
 70
     1
102
RTVSPropertyOp14
 70
     1
102
RTVSPropertyOp15
 70
     1
102
RTVSPropertyOp16
 70
     1
102
RTVSPropertyOp17
 70
     1
102
RTVSPropertyOp18
 70
     1
102
RTVSPropertyOp19
 70
     1
102
RTVSPropertyOp20
 70
     1
102
RTVSPropertyOp21
 70
     1
102
RTVSPropertyOp22
 70
     1
102
RTVSPropertyOp23
 70
     1
102
RTVSPropertyOp24
 70
     1
102
RTVSPropertyOp25
 70
     1
102
RTVSPropertyOp26
 70
     1
102
RTVSPropertyOp27
 70
     1
102
RTVSPropertyOp28
 70
     1
102
RTVSPropertyOp29
 70
     1
102
RTVSPropertyOp30
 70
     1
102
RTVSPropertyOp31
 70
     1
102
RTVSPropertyOp32
 70
     1
102
RTVSPropertyOp33
 70
     1
102
RTVSPropertyOp34
 70
     1
102
RTVSPropertyOp35
 70
     1
102
RTVSPropertyOp36
 70
     1
102
RTVSPropertyOp37
 70
     1
102
RTVSPropertyOp38
 70
     1
102
RTVSPropertyOp39
 70
     1
102
RTVSPropertyOp40
 70
     1
102
RTVSPropertyOp41
 70
     1
102
RTVSPropertyOp42
 70
     1
102
RTVSPropertyOp43
 70
     1
102
RTVSPropertyOp44
 70
     1
102
RTVSPropertyOp45
 70
     1
102
RTVSPropertyOp46
 70
     1
102
RTVSPropertyOp47
 70
     1
102
RTVSPropertyOp48
 70
     1
102
RTVSPropertyOp49
 70
     1
102
RTVSPropertyOp50
 70
     1
102
RTVSPropertyOp51
 70
     0
102
RTVSPropertyOp52
 70
     0
102
RTVSPropertyOp53
 70
     1
102
RTVSPropertyOp54
 70
     1
102
RTVSPropertyOp55
 70
     1
102
RTVSPropertyOp56
 70
     1
102
RTVSPropertyOp57
 70
     1
102
RTVSPost2010Prop28
280
     0
102
RTVSPost2010PropOp28
 70
     1
102
RTVSPost2010Prop29
280
     1
102
RTVSPost2010PropOp29
 70
     1
102
RTVSPost2010Prop30
280
     1
102
RTVSPost2010PropOp30
 70
     1
102
RTVSPost2010Prop31
280
     0
102
RTVSPost2010PropOp31
 70
     1
102
RTVSPost2010Prop32
280
     0
102
RTVSPost2010PropOp32
 70
     1
102
RTVSPost2010Prop33
280
     0
102
RTVSPost2010PropOp33
 70
     1
102
RTVSPost2010Prop34
280
     0
102
RTVSPost2010PropOp34
 70
     1
102
RTVSPost2010Prop35
280
     0
102
RTVSPost2010PropOp35
 70
     1
102
RTVSPost2010Prop36
280
     0
102
RTVSPost2010PropOp36
 70
     1
102
RTVSPost2010Prop37
 90
       50
102
RTVSPost2010PropOp37
 70
     1
102
RTVSPost2010Prop38
140
0.0
102
RTVSPost2010PropOp38
 70
     1
102
RTVSPost2010Prop39
140
1.0
102
RTVSPost2010PropOp39
 70
     1
102
RTVSPost2010Prop40
 90
        0
102
RTVSPost2010PropOp40
 70
     1
102
RTVSPost2010Prop41ColorIndex
 90
       18
102
RTVSPost2010Prop41ColorRGB
 90
        0
102
RTVSPost2010PropOp41
 70
     1
102
RTVSPost2010Prop42
 90
       50
102
RTVSPost2010PropOp42
 70
     1
102
RTVSPost2010Prop43
 90
        3
102
RTVSPost2010PropOp43
 70
     1
102
RTVSPost2010Prop44ColorIndex
 90
        5
102
RTVSPost2010Prop44ColorRGB
 90
      255
102
RTVSPost2010PropOp44
 70
     1
102
RTVSPost2010Prop45
280
     0
102
RTVSPost2010PropOp45
 70
     1
102
RTVSPost2010Prop46
 90
       50
102
RTVSPost2010PropOp46
 70
     1
102
RTVSPost2010Prop47
 90
       50
102
RTVSPost2010PropOp47
 70
     1
102
RTVSPost2010Prop48
 90
       50
102
RTVSPost2010PropOp48
 70
     1
102
RTVSPost2010Prop49
280
     0
102
RTVSPost2010PropOp49
 70
     1
102
RTVSPost2010Prop50
 90
       50
102
RTVSPost2010PropOp50
 70
     1
102
RTVSPost2010Prop51ColorIndex
 90
      256
102
RTVSPost2010Prop51ColorRGB
 90
-16777216
102
RTVSPost2010PropOp51
 70
     0
102
RTVSPost2010Prop52
140
1.0
102
RTVSPost2010PropOp52
 70
     0
102
RTVSPost2010Prop53
 90
        2
102
RTVSPost2010PropOp53
 70
     1
102
RTVSPost2010Prop54
  1
strokes_ogs.tif
102
RTVSPost2010PropOp54
 70
     1
102
RTVSPost2010Prop55
280
     0
102
RTVSPost2010PropOp55
 70
     1
102
RTVSPost2010Prop56
140
1.0
102
RTVSPost2010PropOp56
 70
     1
102
RTVSPost2010Prop57
140
1.0
102
RTVSPost2010PropOp57
 70
     1
  0
XRECORD
  5
385
102
{ACAD_REACTORS
330
384
102
}
330
384
100
AcDbXrecord
280
     1
102
RTVSPropertyOp0
 70
     1
102
RTVSPropertyOp1
 70
     1
102
RTVSPropertyOp2
 70
     1
102
RTVSPropertyOp3
 70
     1
102
RTVSPropertyOp4
 70
     1
102
RTVSPropertyOp5
 70
     1
102
RTVSPropertyOp6
 70
     1
102
RTVSPropertyOp7
 70
     1
102
RTVSPropertyOp8
 70
     1
102
RTVSPropertyOp9
 70
     1
102
RTVSPropertyOp10
 70
     1
102
RTVSPropertyOp11
 70
     1
102
RTVSPropertyOp12
 70
     1
102
RTVSPropertyOp13
 70
     1
102
RTVSPropertyOp14
 70
     1
102
RTVSPropertyOp15
 70
     1
102
RTVSPropertyOp16
 70
     1
102
RTVSPropertyOp17
 70
     1
102
RTVSPropertyOp18
 70
     1
102
RTVSPropertyOp19
 70
     1
102
RTVSPropertyOp20
 70
     1
102
RTVSPropertyOp21
 70
     1
102
RTVSPropertyOp22
 70
     1
102
RTVSPropertyOp23
 70
     1
102
RTVSPropertyOp24
 70
     1
102
RTVSPropertyOp25
 70
     1
102
RTVSPropertyOp26
 70
     1
102
RTVSPropertyOp27
 70
     1
102
RTVSPropertyOp28
 70
     1
102
RTVSPropertyOp29
 70
     1
102
RTVSPropertyOp30
 70
     1
102
RTVSPropertyOp31
 70
     1
102
RTVSPropertyOp32
 70
     1
102
RTVSPropertyOp33
 70
     1
102
RTVSPropertyOp34
 70
     1
102
RTVSPropertyOp35
 70
     1
102
RTVSPropertyOp36
 70
     1
102
RTVSPropertyOp37
 70
     1
102
RTVSPropertyOp38
 70
     1
102
RTVSPropertyOp39
 70
     1
102
RTVSPropertyOp40
 70
     1
102
RTVSPropertyOp41
 70
     1
102
RTVSPropertyOp42
 70
     1
102
RTVSPropertyOp43
 70
     1
102
RTVSPropertyOp44
 70
     1
102
RTVSPropertyOp45
 70
     1
102
RTVSPropertyOp46
 70
     1
102
RTVSPropertyOp47
 70
     1
102
RTVSPropertyOp48
 70
     1
102
RTVSPropertyOp49
 70
     1
102
RTVSPropertyOp50
 70
     1
102
RTVSPropertyOp51
 70
     0
102
RTVSPropertyOp52
 70
     0
102
RTVSPropertyOp53
 70
     1
102
RTVSPropertyOp54
 70
     1
102
RTVSPropertyOp55
 70
     1
102
RTVSPropertyOp56
 70
     1
102
RTVSPropertyOp57
 70
     1
102
RTVSPost2010Prop28
280
     0
102
RTVSPost2010PropOp28
 70
     1
102
RTVSPost2010Prop29
280
     1
102
RTVSPost2010PropOp29
 70
     1
102
RTVSPost2010Prop30
280
     1
102
RTVSPost2010PropOp30
 70
     1
102
RTVSPost2010Prop31
280
     0
102
RTVSPost2010PropOp31
 70
     1
102
RTVSPost2010Prop32
280
     0
102
RTVSPost2010PropOp32
 70
     1
102
RTVSPost2010Prop33
280
     0
102
RTVSPost2010PropOp33
 70
     1
102
RTVSPost2010Prop34
280
     0
102
RTVSPost2010PropOp34
 70
     1
102
RTVSPost2010Prop35
280
     0
102
RTVSPost2010PropOp35
 70
     1
102
RTVSPost2010Prop36
280
     0
102
RTVSPost2010PropOp36
 70
     1
102
RTVSPost2010Prop37
 90
       50
102
RTVSPost2010PropOp37
 70
     1
102
RTVSPost2010Prop38
140
0.0
102
RTVSPost2010PropOp38
 70
     1
102
RTVSPost2010Prop39
140
1.0
102
RTVSPost2010PropOp39
 70
     1
102
RTVSPost2010Prop40
 90
        0
102
RTVSPost2010PropOp40
 70
     1
102
RTVSPost2010Prop41ColorIndex
 90
       18
102
RTVSPost2010Prop41ColorRGB
 90
        0
102
RTVSPost2010PropOp41
 70
     1
102
RTVSPost2010Prop42
 90
       50
102
RTVSPost2010PropOp42
 70
     1
102
RTVSPost2010Prop43
 90
        3
102
RTVSPost2010PropOp43
 70
     1
102
RTVSPost2010Prop44ColorIndex
 90
        5
102
RTVSPost2010Prop44ColorRGB
 90
      255
102
RTVSPost2010PropOp44
 70
     1
102
RTVSPost2010Prop45
280
     0
102
RTVSPost2010PropOp45
 70
     1
102
RTVSPost2010Prop46
 90
       50
102
RTVSPost2010PropOp46
 70
     1
102
RTVSPost2010Prop47
 90
       50
102
RTVSPost2010PropOp47
 70
     1
102
RTVSPost2010Prop48
 90
       50
102
RTVSPost2010PropOp48
 70
     1
102
RTVSPost2010Prop49
280
     0
102
RTVSPost2010PropOp49
 70
     1
102
RTVSPost2010Prop50
 90
       50
102
RTVSPost2010PropOp50
 70
     1
102
RTVSPost2010Prop51ColorIndex
 90
      256
102
RTVSPost2010Prop51ColorRGB
 90
-16777216
102
RTVSPost2010PropOp51
 70
     0
102
RTVSPost2010Prop52
140
1.0
102
RTVSPost2010PropOp52
 70
     0
102
RTVSPost2010Prop53
 90
        2
102
RTVSPost2010PropOp53
 70
     1
102
RTVSPost2010Prop54
  1
strokes_ogs.tif
102
RTVSPost2010PropOp54
 70
     1
102
RTVSPost2010Prop55
280
     0
102
RTVSPost2010PropOp55
 70
     1
102
RTVSPost2010Prop56
140
1.0
102
RTVSPost2010PropOp56
 70
     1
102
RTVSPost2010Prop57
140
1.0
102
RTVSPost2010PropOp57
 70
     1
  0
XRECORD
  5
387
102
{ACAD_REACTORS
330
386
102
}
330
386
100
AcDbXrecord
280
     1
102
RTVSPropertyOp0
 70
     1
102
RTVSPropertyOp1
 70
     1
102
RTVSPropertyOp2
 70
     1
102
RTVSPropertyOp3
 70
     1
102
RTVSPropertyOp4
 70
     1
102
RTVSPropertyOp5
 70
     1
102
RTVSPropertyOp6
 70
     1
102
RTVSPropertyOp7
 70
     1
102
RTVSPropertyOp8
 70
     1
102
RTVSPropertyOp9
 70
     1
102
RTVSPropertyOp10
 70
     1
102
RTVSPropertyOp11
 70
     1
102
RTVSPropertyOp12
 70
     1
102
RTVSPropertyOp13
 70
     1
102
RTVSPropertyOp14
 70
     1
102
RTVSPropertyOp15
 70
     1
102
RTVSPropertyOp16
 70
     1
102
RTVSPropertyOp17
 70
     1
102
RTVSPropertyOp18
 70
     1
102
RTVSPropertyOp19
 70
     1
102
RTVSPropertyOp20
 70
     1
102
RTVSPropertyOp21
 70
     1
102
RTVSPropertyOp22
 70
     1
102
RTVSPropertyOp23
 70
     1
102
RTVSPropertyOp24
 70
     1
102
RTVSPropertyOp25
 70
     1
102
RTVSPropertyOp26
 70
     1
102
RTVSPropertyOp27
 70
     1
102
RTVSPropertyOp28
 70
     1
102
RTVSPropertyOp29
 70
     1
102
RTVSPropertyOp30
 70
     1
102
RTVSPropertyOp31
 70
     1
102
RTVSPropertyOp32
 70
     1
102
RTVSPropertyOp33
 70
     1
102
RTVSPropertyOp34
 70
     1
102
RTVSPropertyOp35
 70
     1
102
RTVSPropertyOp36
 70
     1
102
RTVSPropertyOp37
 70
     1
102
RTVSPropertyOp38
 70
     1
102
RTVSPropertyOp39
 70
     1
102
RTVSPropertyOp40
 70
     1
102
RTVSPropertyOp41
 70
     1
102
RTVSPropertyOp42
 70
     1
102
RTVSPropertyOp43
 70
     1
102
RTVSPropertyOp44
 70
     1
102
RTVSPropertyOp45
 70
     1
102
RTVSPropertyOp46
 70
     1
102
RTVSPropertyOp47
 70
     1
102
RTVSPropertyOp48
 70
     1
102
RTVSPropertyOp49
 70
     1
102
RTVSPropertyOp50
 70
     1
102
RTVSPropertyOp51
 70
     0
102
RTVSPropertyOp52
 70
     0
102
RTVSPropertyOp53
 70
     1
102
RTVSPropertyOp54
 70
     1
102
RTVSPropertyOp55
 70
     1
102
RTVSPropertyOp56
 70
     1
102
RTVSPropertyOp57
 70
     1
102
RTVSPost2010Prop28
280
     0
102
RTVSPost2010PropOp28
 70
     1
102
RTVSPost2010Prop29
280
     1
102
RTVSPost2010PropOp29
 70
     1
102
RTVSPost2010Prop30
280
     1
102
RTVSPost2010PropOp30
 70
     1
102
RTVSPost2010Prop31
280
     0
102
RTVSPost2010PropOp31
 70
     1
102
RTVSPost2010Prop32
280
     0
102
RTVSPost2010PropOp32
 70
     1
102
RTVSPost2010Prop33
280
     0
102
RTVSPost2010PropOp33
 70
     1
102
RTVSPost2010Prop34
280
     0
102
RTVSPost2010PropOp34
 70
     1
102
RTVSPost2010Prop35
280
     0
102
RTVSPost2010PropOp35
 70
     1
102
RTVSPost2010Prop36
280
     0
102
RTVSPost2010PropOp36
 70
     1
102
RTVSPost2010Prop37
 90
       50
102
RTVSPost2010PropOp37
 70
     1
102
RTVSPost2010Prop38
140
0.0
102
RTVSPost2010PropOp38
 70
     1
102
RTVSPost2010Prop39
140
1.0
102
RTVSPost2010PropOp39
 70
     1
102
RTVSPost2010Prop40
 90
        0
102
RTVSPost2010PropOp40
 70
     1
102
RTVSPost2010Prop41ColorIndex
 90
       18
102
RTVSPost2010Prop41ColorRGB
 90
        0
102
RTVSPost2010PropOp41
 70
     1
102
RTVSPost2010Prop42
 90
       50
102
RTVSPost2010PropOp42
 70
     1
102
RTVSPost2010Prop43
 90
        3
102
RTVSPost2010PropOp43
 70
     1
102
RTVSPost2010Prop44ColorIndex
 90
        5
102
RTVSPost2010Prop44ColorRGB
 90
      255
102
RTVSPost2010PropOp44
 70
     1
102
RTVSPost2010Prop45
280
     0
102
RTVSPost2010PropOp45
 70
     1
102
RTVSPost2010Prop46
 90
       50
102
RTVSPost2010PropOp46
 70
     1
102
RTVSPost2010Prop47
 90
       50
102
RTVSPost2010PropOp47
 70
     1
102
RTVSPost2010Prop48
 90
       50
102
RTVSPost2010PropOp48
 70
     1
102
RTVSPost2010Prop49
280
     0
102
RTVSPost2010PropOp49
 70
     1
102
RTVSPost2010Prop50
 90
       50
102
RTVSPost2010PropOp50
 70
     1
102
RTVSPost2010Prop51ColorIndex
 90
      256
102
RTVSPost2010Prop51ColorRGB
 90
-16777216
102
RTVSPost2010PropOp51
 70
     0
102
RTVSPost2010Prop52
140
1.0
102
RTVSPost2010PropOp52
 70
     0
102
RTVSPost2010Prop53
 90
        2
102
RTVSPost2010PropOp53
 70
     1
102
RTVSPost2010Prop54
  1
strokes_ogs.tif
102
RTVSPost2010PropOp54
 70
     1
102
RTVSPost2010Prop55
280
     0
102
RTVSPost2010PropOp55
 70
     1
102
RTVSPost2010Prop56
140
1.0
102
RTVSPost2010PropOp56
 70
     1
102
RTVSPost2010Prop57
140
1.0
102
RTVSPost2010PropOp57
 70
     1
  0
XRECORD
  5
38D
102
{ACAD_REACTORS
330
38C
102
}
330
38C
100
AcDbXrecord
280
     1
102
RTVSPropertyOp0
 70
     1
102
RTVSPropertyOp1
 70
     1
102
RTVSPropertyOp2
 70
     1
102
RTVSPropertyOp3
 70
     1
102
RTVSPropertyOp4
 70
     1
102
RTVSPropertyOp5
 70
     1
102
RTVSPropertyOp6
 70
     1
102
RTVSPropertyOp7
 70
     1
102
RTVSPropertyOp8
 70
     1
102
RTVSPropertyOp9
 70
     1
102
RTVSPropertyOp10
 70
     1
102
RTVSPropertyOp11
 70
     1
102
RTVSPropertyOp12
 70
     1
102
RTVSPropertyOp13
 70
     1
102
RTVSPropertyOp14
 70
     1
102
RTVSPropertyOp15
 70
     1
102
RTVSPropertyOp16
 70
     1
102
RTVSPropertyOp17
 70
     1
102
RTVSPropertyOp18
 70
     1
102
RTVSPropertyOp19
 70
     1
102
RTVSPropertyOp20
 70
     1
102
RTVSPropertyOp21
 70
     1
102
RTVSPropertyOp22
 70
     1
102
RTVSPropertyOp23
 70
     1
102
RTVSPropertyOp24
 70
     1
102
RTVSPropertyOp25
 70
     1
102
RTVSPropertyOp26
 70
     1
102
RTVSPropertyOp27
 70
     1
102
RTVSPropertyOp28
 70
     1
102
RTVSPropertyOp29
 70
     1
102
RTVSPropertyOp30
 70
     1
102
RTVSPropertyOp31
 70
     1
102
RTVSPropertyOp32
 70
     1
102
RTVSPropertyOp33
 70
     1
102
RTVSPropertyOp34
 70
     1
102
RTVSPropertyOp35
 70
     1
102
RTVSPropertyOp36
 70
     1
102
RTVSPropertyOp37
 70
     1
102
RTVSPropertyOp38
 70
     1
102
RTVSPropertyOp39
 70
     1
102
RTVSPropertyOp40
 70
     1
102
RTVSPropertyOp41
 70
     1
102
RTVSPropertyOp42
 70
     1
102
RTVSPropertyOp43
 70
     1
102
RTVSPropertyOp44
 70
     1
102
RTVSPropertyOp45
 70
     1
102
RTVSPropertyOp46
 70
     1
102
RTVSPropertyOp47
 70
     1
102
RTVSPropertyOp48
 70
     1
102
RTVSPropertyOp49
 70
     1
102
RTVSPropertyOp50
 70
     1
102
RTVSPropertyOp51
 70
     0
102
RTVSPropertyOp52
 70
     0
102
RTVSPropertyOp53
 70
     1
102
RTVSPropertyOp54
 70
     1
102
RTVSPropertyOp55
 70
     1
102
RTVSPropertyOp56
 70
     1
102
RTVSPropertyOp57
 70
     1
102
RTVSPost2010Prop28
280
     0
102
RTVSPost2010PropOp28
 70
     1
102
RTVSPost2010Prop29
280
     1
102
RTVSPost2010PropOp29
 70
     1
102
RTVSPost2010Prop30
280
     1
102
RTVSPost2010PropOp30
 70
     1
102
RTVSPost2010Prop31
280
     0
102
RTVSPost2010PropOp31
 70
     1
102
RTVSPost2010Prop32
280
     0
102
RTVSPost2010PropOp32
 70
     1
102
RTVSPost2010Prop33
280
     0
102
RTVSPost2010PropOp33
 70
     1
102
RTVSPost2010Prop34
280
     0
102
RTVSPost2010PropOp34
 70
     1
102
RTVSPost2010Prop35
280
     0
102
RTVSPost2010PropOp35
 70
     1
102
RTVSPost2010Prop36
280
     0
102
RTVSPost2010PropOp36
 70
     1
102
RTVSPost2010Prop37
 90
       50
102
RTVSPost2010PropOp37
 70
     1
102
RTVSPost2010Prop38
140
0.0
102
RTVSPost2010PropOp38
 70
     1
102
RTVSPost2010Prop39
140
1.0
102
RTVSPost2010PropOp39
 70
     1
102
RTVSPost2010Prop40
 90
        0
102
RTVSPost2010PropOp40
 70
     1
102
RTVSPost2010Prop41ColorIndex
 90
       18
102
RTVSPost2010Prop41ColorRGB
 90
        0
102
RTVSPost2010PropOp41
 70
     1
102
RTVSPost2010Prop42
 90
       50
102
RTVSPost2010PropOp42
 70
     1
102
RTVSPost2010Prop43
 90
        3
102
RTVSPost2010PropOp43
 70
     1
102
RTVSPost2010Prop44ColorIndex
 90
        5
102
RTVSPost2010Prop44ColorRGB
 90
      255
102
RTVSPost2010PropOp44
 70
     1
102
RTVSPost2010Prop45
280
     0
102
RTVSPost2010PropOp45
 70
     1
102
RTVSPost2010Prop46
 90
       50
102
RTVSPost2010PropOp46
 70
     1
102
RTVSPost2010Prop47
 90
       50
102
RTVSPost2010PropOp47
 70
     1
102
RTVSPost2010Prop48
 90
       50
102
RTVSPost2010PropOp48
 70
     1
102
RTVSPost2010Prop49
280
     0
102
RTVSPost2010PropOp49
 70
     1
102
RTVSPost2010Prop50
 90
       50
102
RTVSPost2010PropOp50
 70
     1
102
RTVSPost2010Prop51ColorIndex
 90
      256
102
RTVSPost2010Prop51ColorRGB
 90
-16777216
102
RTVSPost2010PropOp51
 70
     0
102
RTVSPost2010Prop52
140
1.0
102
RTVSPost2010PropOp52
 70
     0
102
RTVSPost2010Prop53
 90
        2
102
RTVSPost2010PropOp53
 70
     1
102
RTVSPost2010Prop54
  1
strokes_ogs.tif
102
RTVSPost2010PropOp54
 70
     1
102
RTVSPost2010Prop55
280
     0
102
RTVSPost2010PropOp55
 70
     1
102
RTVSPost2010Prop56
140
1.0
102
RTVSPost2010PropOp56
 70
     1
102
RTVSPost2010Prop57
140
1.0
102
RTVSPost2010PropOp57
 70
     1
  0
XRECORD
  5
3A1
102
{ACAD_REACTORS
330
3A0
102
}
330
3A0
100
AcDbXrecord
280
     1
102
RTVSPropertyOp0
 70
     0
102
RTVSPropertyOp1
 70
     0
102
RTVSPropertyOp2
 70
     0
102
RTVSPropertyOp3
 70
     0
102
RTVSPropertyOp4
 70
     0
102
RTVSPropertyOp5
 70
     0
102
RTVSPropertyOp6
 70
     0
102
RTVSPropertyOp7
 70
     0
102
RTVSPropertyOp8
 70
     0
102
RTVSPropertyOp9
 70
     0
102
RTVSPropertyOp10
 70
     0
102
RTVSPropertyOp11
 70
     0
102
RTVSPropertyOp12
 70
     0
102
RTVSPropertyOp13
 70
     0
102
RTVSPropertyOp14
 70
     2
102
RTVSPropertyOp15
 70
     0
102
RTVSPropertyOp16
 70
     0
102
RTVSPropertyOp17
 70
     0
102
RTVSPropertyOp18
 70
     0
102
RTVSPropertyOp19
 70
     0
102
RTVSPropertyOp20
 70
     0
102
RTVSPropertyOp21
 70
     0
102
RTVSPropertyOp22
 70
     0
102
RTVSPropertyOp23
 70
     0
102
RTVSPropertyOp24
 70
     0
102
RTVSPropertyOp25
 70
     0
102
RTVSPropertyOp26
 70
     0
102
RTVSPropertyOp27
 70
     0
102
RTVSPropertyOp28
 70
     0
102
RTVSPropertyOp29
 70
     0
102
RTVSPropertyOp30
 70
     0
102
RTVSPropertyOp31
 70
     0
102
RTVSPropertyOp32
 70
     0
102
RTVSPropertyOp33
 70
     0
102
RTVSPropertyOp34
 70
     0
102
RTVSPropertyOp35
 70
     0
102
RTVSPropertyOp36
 70
     0
102
RTVSPropertyOp37
 70
     0
102
RTVSPropertyOp38
 70
     0
102
RTVSPropertyOp39
 70
     0
102
RTVSPropertyOp40
 70
     0
102
RTVSPropertyOp41
 70
     0
102
RTVSPropertyOp42
 70
     0
102
RTVSPropertyOp43
 70
     0
102
RTVSPropertyOp44
 70
     0
102
RTVSPropertyOp45
 70
     0
102
RTVSPropertyOp46
 70
     0
102
RTVSPropertyOp47
 70
     0
102
RTVSPropertyOp48
 70
     0
102
RTVSPropertyOp49
 70
     0
102
RTVSPropertyOp50
 70
     0
102
RTVSPropertyOp51
 70
     0
102
RTVSPropertyOp52
 70
     0
102
RTVSPropertyOp53
 70
     0
102
RTVSPropertyOp54
 70
     0
102
RTVSPropertyOp55
 70
     0
102
RTVSPropertyOp56
 70
     0
102
RTVSPropertyOp57
 70
     0
102
RTVSPost2010Prop28
280
     0
102
RTVSPost2010PropOp28
 70
     0
102
RTVSPost2010Prop29
280
     1
102
RTVSPost2010PropOp29
 70
     0
102
RTVSPost2010Prop30
280
     1
102
RTVSPost2010PropOp30
 70
     0
102
RTVSPost2010Prop31
280
     0
102
RTVSPost2010PropOp31
 70
     0
102
RTVSPost2010Prop32
280
     0
102
RTVSPost2010PropOp32
 70
     0
102
RTVSPost2010Prop33
280
     0
102
RTVSPost2010PropOp33
 70
     0
102
RTVSPost2010Prop34
280
     0
102
RTVSPost2010PropOp34
 70
     0
102
RTVSPost2010Prop35
280
     0
102
RTVSPost2010PropOp35
 70
     0
102
RTVSPost2010Prop36
280
     0
102
RTVSPost2010PropOp36
 70
     0
102
RTVSPost2010Prop37
 90
       50
102
RTVSPost2010PropOp37
 70
     0
102
RTVSPost2010Prop38
140
0.0
102
RTVSPost2010PropOp38
 70
     0
102
RTVSPost2010Prop39
140
1.0
102
RTVSPost2010PropOp39
 70
     0
102
RTVSPost2010Prop40
 90
        0
102
RTVSPost2010PropOp40
 70
     0
102
RTVSPost2010Prop41ColorIndex
 90
       18
102
RTVSPost2010Prop41ColorRGB
 90
        0
102
RTVSPost2010PropOp41
 70
     0
102
RTVSPost2010Prop42
 90
       50
102
RTVSPost2010PropOp42
 70
     0
102
RTVSPost2010Prop43
 90
        3
102
RTVSPost2010PropOp43
 70
     0
102
RTVSPost2010Prop44ColorIndex
 90
        5
102
RTVSPost2010Prop44ColorRGB
 90
      255
102
RTVSPost2010PropOp44
 70
     0
102
RTVSPost2010Prop45
280
     0
102
RTVSPost2010PropOp45
 70
     0
102
RTVSPost2010Prop46
 90
       50
102
RTVSPost2010PropOp46
 70
     0
102
RTVSPost2010Prop47
 90
       50
102
RTVSPost2010PropOp47
 70
     0
102
RTVSPost2010Prop48
 90
       50
102
RTVSPost2010PropOp48
 70
     0
102
RTVSPost2010Prop49
280
     0
102
RTVSPost2010PropOp49
 70
     0
102
RTVSPost2010Prop50
 90
       50
102
RTVSPost2010PropOp50
 70
     0
102
RTVSPost2010Prop51ColorIndex
 90
      256
102
RTVSPost2010Prop51ColorRGB
 90
-16777216
102
RTVSPost2010PropOp51
 70
     0
102
RTVSPost2010Prop52
140
1.0
102
RTVSPost2010PropOp52
 70
     0
102
RTVSPost2010Prop53
 90
        2
102
RTVSPost2010PropOp53
 70
     0
102
RTVSPost2010Prop54
  1
strokes_ogs.tif
102
RTVSPost2010PropOp54
 70
     0
102
RTVSPost2010Prop55
280
     0
102
RTVSPost2010PropOp55
 70
     0
102
RTVSPost2010Prop56
140
1.0
102
RTVSPost2010PropOp56
 70
     0
102
RTVSPost2010Prop57
140
1.0
102
RTVSPost2010PropOp57
 70
     0
  0
XRECORD
  5
39B
102
{ACAD_REACTORS
330
39A
102
}
330
39A
100
AcDbXrecord
280
     1
102
RTVSPropertyOp0
 70
     1
102
RTVSPropertyOp1
 70
     1
102
RTVSPropertyOp2
 70
     1
102
RTVSPropertyOp3
 70
     1
102
RTVSPropertyOp4
 70
     1
102
RTVSPropertyOp5
 70
     1
102
RTVSPropertyOp6
 70
     1
102
RTVSPropertyOp7
 70
     1
102
RTVSPropertyOp8
 70
     1
102
RTVSPropertyOp9
 70
     1
102
RTVSPropertyOp10
 70
     1
102
RTVSPropertyOp11
 70
     1
102
RTVSPropertyOp12
 70
     1
102
RTVSPropertyOp13
 70
     1
102
RTVSPropertyOp14
 70
     1
102
RTVSPropertyOp15
 70
     1
102
RTVSPropertyOp16
 70
     1
102
RTVSPropertyOp17
 70
     1
102
RTVSPropertyOp18
 70
     1
102
RTVSPropertyOp19
 70
     1
102
RTVSPropertyOp20
 70
     1
102
RTVSPropertyOp21
 70
     1
102
RTVSPropertyOp22
 70
     1
102
RTVSPropertyOp23
 70
     1
102
RTVSPropertyOp24
 70
     1
102
RTVSPropertyOp25
 70
     1
102
RTVSPropertyOp26
 70
     1
102
RTVSPropertyOp27
 70
     1
102
RTVSPropertyOp28
 70
     1
102
RTVSPropertyOp29
 70
     1
102
RTVSPropertyOp30
 70
     1
102
RTVSPropertyOp31
 70
     1
102
RTVSPropertyOp32
 70
     1
102
RTVSPropertyOp33
 70
     1
102
RTVSPropertyOp34
 70
     1
102
RTVSPropertyOp35
 70
     1
102
RTVSPropertyOp36
 70
     1
102
RTVSPropertyOp37
 70
     1
102
RTVSPropertyOp38
 70
     1
102
RTVSPropertyOp39
 70
     1
102
RTVSPropertyOp40
 70
     1
102
RTVSPropertyOp41
 70
     1
102
RTVSPropertyOp42
 70
     1
102
RTVSPropertyOp43
 70
     1
102
RTVSPropertyOp44
 70
     1
102
RTVSPropertyOp45
 70
     1
102
RTVSPropertyOp46
 70
     1
102
RTVSPropertyOp47
 70
     1
102
RTVSPropertyOp48
 70
     1
102
RTVSPropertyOp49
 70
     1
102
RTVSPropertyOp50
 70
     1
102
RTVSPropertyOp51
 70
     0
102
RTVSPropertyOp52
 70
     0
102
RTVSPropertyOp53
 70
     1
102
RTVSPropertyOp54
 70
     1
102
RTVSPropertyOp55
 70
     1
102
RTVSPropertyOp56
 70
     1
102
RTVSPropertyOp57
 70
     1
102
RTVSPost2010Prop28
280
     0
102
RTVSPost2010PropOp28
 70
     1
102
RTVSPost2010Prop29
280
     1
102
RTVSPost2010PropOp29
 70
     1
102
RTVSPost2010Prop30
280
     1
102
RTVSPost2010PropOp30
 70
     1
102
RTVSPost2010Prop31
280
     0
102
RTVSPost2010PropOp31
 70
     1
102
RTVSPost2010Prop32
280
     0
102
RTVSPost2010PropOp32
 70
     1
102
RTVSPost2010Prop33
280
     0
102
RTVSPost2010PropOp33
 70
     1
102
RTVSPost2010Prop34
280
     0
102
RTVSPost2010PropOp34
 70
     1
102
RTVSPost2010Prop35
280
     0
102
RTVSPost2010PropOp35
 70
     1
102
RTVSPost2010Prop36
280
     0
102
RTVSPost2010PropOp36
 70
     1
102
RTVSPost2010Prop37
 90
       50
102
RTVSPost2010PropOp37
 70
     1
102
RTVSPost2010Prop38
140
0.0
102
RTVSPost2010PropOp38
 70
     1
102
RTVSPost2010Prop39
140
1.0
102
RTVSPost2010PropOp39
 70
     1
102
RTVSPost2010Prop40
 90
        0
102
RTVSPost2010PropOp40
 70
     1
102
RTVSPost2010Prop41ColorIndex
 90
       18
102
RTVSPost2010Prop41ColorRGB
 90
        0
102
RTVSPost2010PropOp41
 70
     1
102
RTVSPost2010Prop42
 90
       50
102
RTVSPost2010PropOp42
 70
     1
102
RTVSPost2010Prop43
 90
        3
102
RTVSPost2010PropOp43
 70
     1
102
RTVSPost2010Prop44ColorIndex
 90
        5
102
RTVSPost2010Prop44ColorRGB
 90
      255
102
RTVSPost2010PropOp44
 70
     1
102
RTVSPost2010Prop45
280
     0
102
RTVSPost2010PropOp45
 70
     1
102
RTVSPost2010Prop46
 90
       50
102
RTVSPost2010PropOp46
 70
     1
102
RTVSPost2010Prop47
 90
       50
102
RTVSPost2010PropOp47
 70
     1
102
RTVSPost2010Prop48
 90
       50
102
RTVSPost2010PropOp48
 70
     1
102
RTVSPost2010Prop49
280
     0
102
RTVSPost2010PropOp49
 70
     1
102
RTVSPost2010Prop50
 90
       50
102
RTVSPost2010PropOp50
 70
     1
102
RTVSPost2010Prop51ColorIndex
 90
      256
102
RTVSPost2010Prop51ColorRGB
 90
-16777216
102
RTVSPost2010PropOp51
 70
     0
102
RTVSPost2010Prop52
140
1.0
102
RTVSPost2010PropOp52
 70
     0
102
RTVSPost2010Prop53
 90
        2
102
RTVSPost2010PropOp53
 70
     1
102
RTVSPost2010Prop54
  1
strokes_ogs.tif
102
RTVSPost2010PropOp54
 70
     1
102
RTVSPost2010Prop55
280
     0
102
RTVSPost2010PropOp55
 70
     1
102
RTVSPost2010Prop56
140
1.0
102
RTVSPost2010PropOp56
 70
     1
102
RTVSPost2010Prop57
140
1.0
102
RTVSPost2010PropOp57
 70
     1
  0
XRECORD
  5
3A3
102
{ACAD_REACTORS
330
3A2
102
}
330
3A2
100
AcDbXrecord
280
     1
102
RTVSPropertyOp0
 70
     0
102
RTVSPropertyOp1
 70
     0
102
RTVSPropertyOp2
 70
     0
102
RTVSPropertyOp3
 70
     0
102
RTVSPropertyOp4
 70
     0
102
RTVSPropertyOp5
 70
     0
102
RTVSPropertyOp6
 70
     0
102
RTVSPropertyOp7
 70
     0
102
RTVSPropertyOp8
 70
     0
102
RTVSPropertyOp9
 70
     0
102
RTVSPropertyOp10
 70
     0
102
RTVSPropertyOp11
 70
     0
102
RTVSPropertyOp12
 70
     0
102
RTVSPropertyOp13
 70
     0
102
RTVSPropertyOp14
 70
     2
102
RTVSPropertyOp15
 70
     0
102
RTVSPropertyOp16
 70
     0
102
RTVSPropertyOp17
 70
     0
102
RTVSPropertyOp18
 70
     0
102
RTVSPropertyOp19
 70
     0
102
RTVSPropertyOp20
 70
     0
102
RTVSPropertyOp21
 70
     0
102
RTVSPropertyOp22
 70
     0
102
RTVSPropertyOp23
 70
     0
102
RTVSPropertyOp24
 70
     0
102
RTVSPropertyOp25
 70
     0
102
RTVSPropertyOp26
 70
     0
102
RTVSPropertyOp27
 70
     0
102
RTVSPropertyOp28
 70
     0
102
RTVSPropertyOp29
 70
     0
102
RTVSPropertyOp30
 70
     0
102
RTVSPropertyOp31
 70
     0
102
RTVSPropertyOp32
 70
     0
102
RTVSPropertyOp33
 70
     0
102
RTVSPropertyOp34
 70
     0
102
RTVSPropertyOp35
 70
     0
102
RTVSPropertyOp36
 70
     0
102
RTVSPropertyOp37
 70
     0
102
RTVSPropertyOp38
 70
     0
102
RTVSPropertyOp39
 70
     0
102
RTVSPropertyOp40
 70
     0
102
RTVSPropertyOp41
 70
     0
102
RTVSPropertyOp42
 70
     0
102
RTVSPropertyOp43
 70
     0
102
RTVSPropertyOp44
 70
     0
102
RTVSPropertyOp45
 70
     0
102
RTVSPropertyOp46
 70
     0
102
RTVSPropertyOp47
 70
     0
102
RTVSPropertyOp48
 70
     0
102
RTVSPropertyOp49
 70
     0
102
RTVSPropertyOp50
 70
     0
102
RTVSPropertyOp51
 70
     0
102
RTVSPropertyOp52
 70
     0
102
RTVSPropertyOp53
 70
     0
102
RTVSPropertyOp54
 70
     0
102
RTVSPropertyOp55
 70
     0
102
RTVSPropertyOp56
 70
     0
102
RTVSPropertyOp57
 70
     0
102
RTVSPost2010Prop28
280
     0
102
RTVSPost2010PropOp28
 70
     0
102
RTVSPost2010Prop29
280
     1
102
RTVSPost2010PropOp29
 70
     0
102
RTVSPost2010Prop30
280
     1
102
RTVSPost2010PropOp30
 70
     0
102
RTVSPost2010Prop31
280
     0
102
RTVSPost2010PropOp31
 70
     0
102
RTVSPost2010Prop32
280
     0
102
RTVSPost2010PropOp32
 70
     0
102
RTVSPost2010Prop33
280
     0
102
RTVSPost2010PropOp33
 70
     0
102
RTVSPost2010Prop34
280
     0
102
RTVSPost2010PropOp34
 70
     0
102
RTVSPost2010Prop35
280
     0
102
RTVSPost2010PropOp35
 70
     0
102
RTVSPost2010Prop36
280
     0
102
RTVSPost2010PropOp36
 70
     0
102
RTVSPost2010Prop37
 90
       50
102
RTVSPost2010PropOp37
 70
     0
102
RTVSPost2010Prop38
140
0.0
102
RTVSPost2010PropOp38
 70
     0
102
RTVSPost2010Prop39
140
1.0
102
RTVSPost2010PropOp39
 70
     0
102
RTVSPost2010Prop40
 90
        0
102
RTVSPost2010PropOp40
 70
     0
102
RTVSPost2010Prop41ColorIndex
 90
       18
102
RTVSPost2010Prop41ColorRGB
 90
        0
102
RTVSPost2010PropOp41
 70
     0
102
RTVSPost2010Prop42
 90
       50
102
RTVSPost2010PropOp42
 70
     0
102
RTVSPost2010Prop43
 90
        3
102
RTVSPost2010PropOp43
 70
     0
102
RTVSPost2010Prop44ColorIndex
 90
        5
102
RTVSPost2010Prop44ColorRGB
 90
      255
102
RTVSPost2010PropOp44
 70
     0
102
RTVSPost2010Prop45
280
     0
102
RTVSPost2010PropOp45
 70
     0
102
RTVSPost2010Prop46
 90
       50
102
RTVSPost2010PropOp46
 70
     0
102
RTVSPost2010Prop47
 90
       50
102
RTVSPost2010PropOp47
 70
     0
102
RTVSPost2010Prop48
 90
       50
102
RTVSPost2010PropOp48
 70
     0
102
RTVSPost2010Prop49
280
     0
102
RTVSPost2010PropOp49
 70
     0
102
RTVSPost2010Prop50
 90
       50
102
RTVSPost2010PropOp50
 70
     0
102
RTVSPost2010Prop51ColorIndex
 90
      256
102
RTVSPost2010Prop51ColorRGB
 90
-16777216
102
RTVSPost2010PropOp51
 70
     0
102
RTVSPost2010Prop52
140
1.0
102
RTVSPost2010PropOp52
 70
     0
102
RTVSPost2010Prop53
 90
        2
102
RTVSPost2010PropOp53
 70
     0
102
RTVSPost2010Prop54
  1
strokes_ogs.tif
102
RTVSPost2010PropOp54
 70
     0
102
RTVSPost2010Prop55
280
     0
102
RTVSPost2010PropOp55
 70
     0
102
RTVSPost2010Prop56
140
1.0
102
RTVSPost2010PropOp56
 70
     0
102
RTVSPost2010Prop57
140
1.0
102
RTVSPost2010PropOp57
 70
     0
  0
XRECORD
  5
391
102
{ACAD_REACTORS
330
390
102
}
330
390
100
AcDbXrecord
280
     1
102
RTVSPropertyOp0
 70
     1
102
RTVSPropertyOp1
 70
     1
102
RTVSPropertyOp2
 70
     1
102
RTVSPropertyOp3
 70
     1
102
RTVSPropertyOp4
 70
     1
102
RTVSPropertyOp5
 70
     1
102
RTVSPropertyOp6
 70
     1
102
RTVSPropertyOp7
 70
     1
102
RTVSPropertyOp8
 70
     1
102
RTVSPropertyOp9
 70
     1
102
RTVSPropertyOp10
 70
     1
102
RTVSPropertyOp11
 70
     1
102
RTVSPropertyOp12
 70
     1
102
RTVSPropertyOp13
 70
     1
102
RTVSPropertyOp14
 70
     1
102
RTVSPropertyOp15
 70
     1
102
RTVSPropertyOp16
 70
     1
102
RTVSPropertyOp17
 70
     1
102
RTVSPropertyOp18
 70
     1
102
RTVSPropertyOp19
 70
     1
102
RTVSPropertyOp20
 70
     1
102
RTVSPropertyOp21
 70
     1
102
RTVSPropertyOp22
 70
     1
102
RTVSPropertyOp23
 70
     1
102
RTVSPropertyOp24
 70
     1
102
RTVSPropertyOp25
 70
     1
102
RTVSPropertyOp26
 70
     1
102
RTVSPropertyOp27
 70
     1
102
RTVSPropertyOp28
 70
     1
102
RTVSPropertyOp29
 70
     1
102
RTVSPropertyOp30
 70
     1
102
RTVSPropertyOp31
 70
     1
102
RTVSPropertyOp32
 70
     1
102
RTVSPropertyOp33
 70
     1
102
RTVSPropertyOp34
 70
     1
102
RTVSPropertyOp35
 70
     1
102
RTVSPropertyOp36
 70
     1
102
RTVSPropertyOp37
 70
     1
102
RTVSPropertyOp38
 70
     1
102
RTVSPropertyOp39
 70
     1
102
RTVSPropertyOp40
 70
     1
102
RTVSPropertyOp41
 70
     1
102
RTVSPropertyOp42
 70
     1
102
RTVSPropertyOp43
 70
     1
102
RTVSPropertyOp44
 70
     1
102
RTVSPropertyOp45
 70
     1
102
RTVSPropertyOp46
 70
     1
102
RTVSPropertyOp47
 70
     1
102
RTVSPropertyOp48
 70
     1
102
RTVSPropertyOp49
 70
     1
102
RTVSPropertyOp50
 70
     1
102
RTVSPropertyOp51
 70
     0
102
RTVSPropertyOp52
 70
     0
102
RTVSPropertyOp53
 70
     1
102
RTVSPropertyOp54
 70
     1
102
RTVSPropertyOp55
 70
     1
102
RTVSPropertyOp56
 70
     1
102
RTVSPropertyOp57
 70
     1
102
RTVSPost2010Prop28
280
     0
102
RTVSPost2010PropOp28
 70
     1
102
RTVSPost2010Prop29
280
     1
102
RTVSPost2010PropOp29
 70
     1
102
RTVSPost2010Prop30
280
     1
102
RTVSPost2010PropOp30
 70
     1
102
RTVSPost2010Prop31
280
     0
102
RTVSPost2010PropOp31
 70
     1
102
RTVSPost2010Prop32
280
     0
102
RTVSPost2010PropOp32
 70
     1
102
RTVSPost2010Prop33
280
     0
102
RTVSPost2010PropOp33
 70
     1
102
RTVSPost2010Prop34
280
     0
102
RTVSPost2010PropOp34
 70
     1
102
RTVSPost2010Prop35
280
     0
102
RTVSPost2010PropOp35
 70
     1
102
RTVSPost2010Prop36
280
     0
102
RTVSPost2010PropOp36
 70
     1
102
RTVSPost2010Prop37
 90
       50
102
RTVSPost2010PropOp37
 70
     1
102
RTVSPost2010Prop38
140
0.0
102
RTVSPost2010PropOp38
 70
     1
102
RTVSPost2010Prop39
140
1.0
102
RTVSPost2010PropOp39
 70
     1
102
RTVSPost2010Prop40
 90
        0
102
RTVSPost2010PropOp40
 70
     1
102
RTVSPost2010Prop41ColorIndex
 90
       18
102
RTVSPost2010Prop41ColorRGB
 90
        0
102
RTVSPost2010PropOp41
 70
     1
102
RTVSPost2010Prop42
 90
       50
102
RTVSPost2010PropOp42
 70
     1
102
RTVSPost2010Prop43
 90
        3
102
RTVSPost2010PropOp43
 70
     1
102
RTVSPost2010Prop44ColorIndex
 90
        5
102
RTVSPost2010Prop44ColorRGB
 90
      255
102
RTVSPost2010PropOp44
 70
     1
102
RTVSPost2010Prop45
280
     0
102
RTVSPost2010PropOp45
 70
     1
102
RTVSPost2010Prop46
 90
       50
102
RTVSPost2010PropOp46
 70
     1
102
RTVSPost2010Prop47
 90
       50
102
RTVSPost2010PropOp47
 70
     1
102
RTVSPost2010Prop48
 90
       50
102
RTVSPost2010PropOp48
 70
     1
102
RTVSPost2010Prop49
280
     0
102
RTVSPost2010PropOp49
 70
     1
102
RTVSPost2010Prop50
 90
       50
102
RTVSPost2010PropOp50
 70
     1
102
RTVSPost2010Prop51ColorIndex
 90
      256
102
RTVSPost2010Prop51ColorRGB
 90
-16777216
102
RTVSPost2010PropOp51
 70
     0
102
RTVSPost2010Prop52
140
1.0
102
RTVSPost2010PropOp52
 70
     0
102
RTVSPost2010Prop53
 90
        2
102
RTVSPost2010PropOp53
 70
     1
102
RTVSPost2010Prop54
  1
strokes_ogs.tif
102
RTVSPost2010PropOp54
 70
     1
102
RTVSPost2010Prop55
280
     0
102
RTVSPost2010PropOp55
 70
     1
102
RTVSPost2010Prop56
140
1.0
102
RTVSPost2010PropOp56
 70
     1
102
RTVSPost2010Prop57
140
1.0
102
RTVSPost2010PropOp57
 70
     1
  0
XRECORD
  5
3AF
102
{ACAD_REACTORS
330
3AE
102
}
330
3AE
100
AcDbXrecord
280
     1
102
RTVSPropertyOp0
 70
     1
102
RTVSPropertyOp1
 70
     1
102
RTVSPropertyOp2
 70
     1
102
RTVSPropertyOp3
 70
     1
102
RTVSPropertyOp4
 70
     1
102
RTVSPropertyOp5
 70
     1
102
RTVSPropertyOp6
 70
     1
102
RTVSPropertyOp7
 70
     1
102
RTVSPropertyOp8
 70
     1
102
RTVSPropertyOp9
 70
     1
102
RTVSPropertyOp10
 70
     1
102
RTVSPropertyOp11
 70
     1
102
RTVSPropertyOp12
 70
     1
102
RTVSPropertyOp13
 70
     1
102
RTVSPropertyOp14
 70
     1
102
RTVSPropertyOp15
 70
     1
102
RTVSPropertyOp16
 70
     1
102
RTVSPropertyOp17
 70
     1
102
RTVSPropertyOp18
 70
     1
102
RTVSPropertyOp19
 70
     1
102
RTVSPropertyOp20
 70
     1
102
RTVSPropertyOp21
 70
     1
102
RTVSPropertyOp22
 70
     1
102
RTVSPropertyOp23
 70
     1
102
RTVSPropertyOp24
 70
     1
102
RTVSPropertyOp25
 70
     1
102
RTVSPropertyOp26
 70
     1
102
RTVSPropertyOp27
 70
     1
102
RTVSPropertyOp28
 70
     1
102
RTVSPropertyOp29
 70
     1
102
RTVSPropertyOp30
 70
     1
102
RTVSPropertyOp31
 70
     1
102
RTVSPropertyOp32
 70
     1
102
RTVSPropertyOp33
 70
     1
102
RTVSPropertyOp34
 70
     1
102
RTVSPropertyOp35
 70
     1
102
RTVSPropertyOp36
 70
     1
102
RTVSPropertyOp37
 70
     1
102
RTVSPropertyOp38
 70
     1
102
RTVSPropertyOp39
 70
     1
102
RTVSPropertyOp40
 70
     1
102
RTVSPropertyOp41
 70
     1
102
RTVSPropertyOp42
 70
     1
102
RTVSPropertyOp43
 70
     1
102
RTVSPropertyOp44
 70
     1
102
RTVSPropertyOp45
 70
     1
102
RTVSPropertyOp46
 70
     1
102
RTVSPropertyOp47
 70
     1
102
RTVSPropertyOp48
 70
     1
102
RTVSPropertyOp49
 70
     1
102
RTVSPropertyOp50
 70
     1
102
RTVSPropertyOp51
 70
     0
102
RTVSPropertyOp52
 70
     0
102
RTVSPropertyOp53
 70
     1
102
RTVSPropertyOp54
 70
     1
102
RTVSPropertyOp55
 70
     1
102
RTVSPropertyOp56
 70
     1
102
RTVSPropertyOp57
 70
     1
102
RTVSPost2010Prop28
280
     0
102
RTVSPost2010PropOp28
 70
     1
102
RTVSPost2010Prop29
280
     1
102
RTVSPost2010PropOp29
 70
     1
102
RTVSPost2010Prop30
280
     1
102
RTVSPost2010PropOp30
 70
     1
102
RTVSPost2010Prop31
280
     0
102
RTVSPost2010PropOp31
 70
     1
102
RTVSPost2010Prop32
280
     0
102
RTVSPost2010PropOp32
 70
     1
102
RTVSPost2010Prop33
280
     0
102
RTVSPost2010PropOp33
 70
     1
102
RTVSPost2010Prop34
280
     0
102
RTVSPost2010PropOp34
 70
     1
102
RTVSPost2010Prop35
280
     0
102
RTVSPost2010PropOp35
 70
     1
102
RTVSPost2010Prop36
280
     0
102
RTVSPost2010PropOp36
 70
     1
102
RTVSPost2010Prop37
 90
       50
102
RTVSPost2010PropOp37
 70
     1
102
RTVSPost2010Prop38
140
0.0
102
RTVSPost2010PropOp38
 70
     1
102
RTVSPost2010Prop39
140
1.0
102
RTVSPost2010PropOp39
 70
     1
102
RTVSPost2010Prop40
 90
        0
102
RTVSPost2010PropOp40
 70
     1
102
RTVSPost2010Prop41ColorIndex
 90
       18
102
RTVSPost2010Prop41ColorRGB
 90
        0
102
RTVSPost2010PropOp41
 70
     1
102
RTVSPost2010Prop42
 90
       50
102
RTVSPost2010PropOp42
 70
     1
102
RTVSPost2010Prop43
 90
        3
102
RTVSPost2010PropOp43
 70
     1
102
RTVSPost2010Prop44ColorIndex
 90
        5
102
RTVSPost2010Prop44ColorRGB
 90
      255
102
RTVSPost2010PropOp44
 70
     1
102
RTVSPost2010Prop45
280
     0
102
RTVSPost2010PropOp45
 70
     1
102
RTVSPost2010Prop46
 90
       50
102
RTVSPost2010PropOp46
 70
     1
102
RTVSPost2010Prop47
 90
       50
102
RTVSPost2010PropOp47
 70
     1
102
RTVSPost2010Prop48
 90
       50
102
RTVSPost2010PropOp48
 70
     1
102
RTVSPost2010Prop49
280
     0
102
RTVSPost2010PropOp49
 70
     1
102
RTVSPost2010Prop50
 90
       50
102
RTVSPost2010PropOp50
 70
     1
102
RTVSPost2010Prop51ColorIndex
 90
      256
102
RTVSPost2010Prop51ColorRGB
 90
-16777216
102
RTVSPost2010PropOp51
 70
     0
102
RTVSPost2010Prop52
140
1.0
102
RTVSPost2010PropOp52
 70
     0
102
RTVSPost2010Prop53
 90
        2
102
RTVSPost2010PropOp53
 70
     1
102
RTVSPost2010Prop54
  1
strokes_ogs.tif
102
RTVSPost2010PropOp54
 70
     1
102
RTVSPost2010Prop55
280
     0
102
RTVSPost2010PropOp55
 70
     1
102
RTVSPost2010Prop56
140
1.0
102
RTVSPost2010PropOp56
 70
     1
102
RTVSPost2010Prop57
140
1.0
102
RTVSPost2010PropOp57
 70
     1
  0
XRECORD
  5
3AD
102
{ACAD_REACTORS
330
3AC
102
}
330
3AC
100
AcDbXrecord
280
     1
102
RTVSPropertyOp0
 70
     1
102
RTVSPropertyOp1
 70
     1
102
RTVSPropertyOp2
 70
     1
102
RTVSPropertyOp3
 70
     1
102
RTVSPropertyOp4
 70
     1
102
RTVSPropertyOp5
 70
     1
102
RTVSPropertyOp6
 70
     1
102
RTVSPropertyOp7
 70
     1
102
RTVSPropertyOp8
 70
     1
102
RTVSPropertyOp9
 70
     1
102
RTVSPropertyOp10
 70
     1
102
RTVSPropertyOp11
 70
     1
102
RTVSPropertyOp12
 70
     1
102
RTVSPropertyOp13
 70
     1
102
RTVSPropertyOp14
 70
     1
102
RTVSPropertyOp15
 70
     1
102
RTVSPropertyOp16
 70
     1
102
RTVSPropertyOp17
 70
     1
102
RTVSPropertyOp18
 70
     1
102
RTVSPropertyOp19
 70
     1
102
RTVSPropertyOp20
 70
     1
102
RTVSPropertyOp21
 70
     1
102
RTVSPropertyOp22
 70
     1
102
RTVSPropertyOp23
 70
     1
102
RTVSPropertyOp24
 70
     1
102
RTVSPropertyOp25
 70
     1
102
RTVSPropertyOp26
 70
     1
102
RTVSPropertyOp27
 70
     1
102
RTVSPropertyOp28
 70
     1
102
RTVSPropertyOp29
 70
     1
102
RTVSPropertyOp30
 70
     1
102
RTVSPropertyOp31
 70
     1
102
RTVSPropertyOp32
 70
     1
102
RTVSPropertyOp33
 70
     1
102
RTVSPropertyOp34
 70
     1
102
RTVSPropertyOp35
 70
     1
102
RTVSPropertyOp36
 70
     1
102
RTVSPropertyOp37
 70
     1
102
RTVSPropertyOp38
 70
     1
102
RTVSPropertyOp39
 70
     1
102
RTVSPropertyOp40
 70
     1
102
RTVSPropertyOp41
 70
     1
102
RTVSPropertyOp42
 70
     1
102
RTVSPropertyOp43
 70
     1
102
RTVSPropertyOp44
 70
     1
102
RTVSPropertyOp45
 70
     1
102
RTVSPropertyOp46
 70
     1
102
RTVSPropertyOp47
 70
     1
102
RTVSPropertyOp48
 70
     1
102
RTVSPropertyOp49
 70
     1
102
RTVSPropertyOp50
 70
     1
102
RTVSPropertyOp51
 70
     0
102
RTVSPropertyOp52
 70
     0
102
RTVSPropertyOp53
 70
     1
102
RTVSPropertyOp54
 70
     1
102
RTVSPropertyOp55
 70
     1
102
RTVSPropertyOp56
 70
     1
102
RTVSPropertyOp57
 70
     1
102
RTVSPost2010Prop28
280
     0
102
RTVSPost2010PropOp28
 70
     1
102
RTVSPost2010Prop29
280
     1
102
RTVSPost2010PropOp29
 70
     1
102
RTVSPost2010Prop30
280
     1
102
RTVSPost2010PropOp30
 70
     1
102
RTVSPost2010Prop31
280
     0
102
RTVSPost2010PropOp31
 70
     1
102
RTVSPost2010Prop32
280
     0
102
RTVSPost2010PropOp32
 70
     1
102
RTVSPost2010Prop33
280
     0
102
RTVSPost2010PropOp33
 70
     1
102
RTVSPost2010Prop34
280
     0
102
RTVSPost2010PropOp34
 70
     1
102
RTVSPost2010Prop35
280
     0
102
RTVSPost2010PropOp35
 70
     1
102
RTVSPost2010Prop36
280
     0
102
RTVSPost2010PropOp36
 70
     1
102
RTVSPost2010Prop37
 90
       50
102
RTVSPost2010PropOp37
 70
     1
102
RTVSPost2010Prop38
140
0.0
102
RTVSPost2010PropOp38
 70
     1
102
RTVSPost2010Prop39
140
1.0
102
RTVSPost2010PropOp39
 70
     1
102
RTVSPost2010Prop40
 90
        0
102
RTVSPost2010PropOp40
 70
     1
102
RTVSPost2010Prop41ColorIndex
 90
       18
102
RTVSPost2010Prop41ColorRGB
 90
        0
102
RTVSPost2010PropOp41
 70
     1
102
RTVSPost2010Prop42
 90
       50
102
RTVSPost2010PropOp42
 70
     1
102
RTVSPost2010Prop43
 90
        3
102
RTVSPost2010PropOp43
 70
     1
102
RTVSPost2010Prop44ColorIndex
 90
        5
102
RTVSPost2010Prop44ColorRGB
 90
      255
102
RTVSPost2010PropOp44
 70
     1
102
RTVSPost2010Prop45
280
     0
102
RTVSPost2010PropOp45
 70
     1
102
RTVSPost2010Prop46
 90
       50
102
RTVSPost2010PropOp46
 70
     1
102
RTVSPost2010Prop47
 90
       50
102
RTVSPost2010PropOp47
 70
     1
102
RTVSPost2010Prop48
 90
       50
102
RTVSPost2010PropOp48
 70
     1
102
RTVSPost2010Prop49
280
     0
102
RTVSPost2010PropOp49
 70
     1
102
RTVSPost2010Prop50
 90
       50
102
RTVSPost2010PropOp50
 70
     1
102
RTVSPost2010Prop51ColorIndex
 90
      256
102
RTVSPost2010Prop51ColorRGB
 90
-16777216
102
RTVSPost2010PropOp51
 70
     0
102
RTVSPost2010Prop52
140
1.0
102
RTVSPost2010PropOp52
 70
     0
102
RTVSPost2010Prop53
 90
        2
102
RTVSPost2010PropOp53
 70
     1
102
RTVSPost2010Prop54
  1
strokes_ogs.tif
102
RTVSPost2010PropOp54
 70
     1
102
RTVSPost2010Prop55
280
     0
102
RTVSPost2010PropOp55
 70
     1
102
RTVSPost2010Prop56
140
1.0
102
RTVSPost2010PropOp56
 70
     1
102
RTVSPost2010Prop57
140
1.0
102
RTVSPost2010PropOp57
 70
     1
  0
XRECORD
  5
3A7
102
{ACAD_REACTORS
330
3A6
102
}
330
3A6
100
AcDbXrecord
280
     1
102
RTVSPropertyOp0
 70
     1
102
RTVSPropertyOp1
 70
     1
102
RTVSPropertyOp2
 70
     1
102
RTVSPropertyOp3
 70
     1
102
RTVSPropertyOp4
 70
     1
102
RTVSPropertyOp5
 70
     1
102
RTVSPropertyOp6
 70
     1
102
RTVSPropertyOp7
 70
     1
102
RTVSPropertyOp8
 70
     1
102
RTVSPropertyOp9
 70
     1
102
RTVSPropertyOp10
 70
     1
102
RTVSPropertyOp11
 70
     1
102
RTVSPropertyOp12
 70
     1
102
RTVSPropertyOp13
 70
     1
102
RTVSPropertyOp14
 70
     1
102
RTVSPropertyOp15
 70
     1
102
RTVSPropertyOp16
 70
     1
102
RTVSPropertyOp17
 70
     1
102
RTVSPropertyOp18
 70
     1
102
RTVSPropertyOp19
 70
     1
102
RTVSPropertyOp20
 70
     1
102
RTVSPropertyOp21
 70
     1
102
RTVSPropertyOp22
 70
     1
102
RTVSPropertyOp23
 70
     1
102
RTVSPropertyOp24
 70
     1
102
RTVSPropertyOp25
 70
     1
102
RTVSPropertyOp26
 70
     1
102
RTVSPropertyOp27
 70
     1
102
RTVSPropertyOp28
 70
     1
102
RTVSPropertyOp29
 70
     1
102
RTVSPropertyOp30
 70
     1
102
RTVSPropertyOp31
 70
     1
102
RTVSPropertyOp32
 70
     1
102
RTVSPropertyOp33
 70
     1
102
RTVSPropertyOp34
 70
     1
102
RTVSPropertyOp35
 70
     1
102
RTVSPropertyOp36
 70
     1
102
RTVSPropertyOp37
 70
     1
102
RTVSPropertyOp38
 70
     1
102
RTVSPropertyOp39
 70
     1
102
RTVSPropertyOp40
 70
     1
102
RTVSPropertyOp41
 70
     1
102
RTVSPropertyOp42
 70
     1
102
RTVSPropertyOp43
 70
     1
102
RTVSPropertyOp44
 70
     1
102
RTVSPropertyOp45
 70
     1
102
RTVSPropertyOp46
 70
     1
102
RTVSPropertyOp47
 70
     1
102
RTVSPropertyOp48
 70
     1
102
RTVSPropertyOp49
 70
     1
102
RTVSPropertyOp50
 70
     1
102
RTVSPropertyOp51
 70
     0
102
RTVSPropertyOp52
 70
     0
102
RTVSPropertyOp53
 70
     1
102
RTVSPropertyOp54
 70
     1
102
RTVSPropertyOp55
 70
     1
102
RTVSPropertyOp56
 70
     1
102
RTVSPropertyOp57
 70
     1
102
RTVSPost2010Prop28
280
     0
102
RTVSPost2010PropOp28
 70
     1
102
RTVSPost2010Prop29
280
     1
102
RTVSPost2010PropOp29
 70
     1
102
RTVSPost2010Prop30
280
     1
102
RTVSPost2010PropOp30
 70
     1
102
RTVSPost2010Prop31
280
     0
102
RTVSPost2010PropOp31
 70
     1
102
RTVSPost2010Prop32
280
     0
102
RTVSPost2010PropOp32
 70
     1
102
RTVSPost2010Prop33
280
     0
102
RTVSPost2010PropOp33
 70
     1
102
RTVSPost2010Prop34
280
     0
102
RTVSPost2010PropOp34
 70
     1
102
RTVSPost2010Prop35
280
     0
102
RTVSPost2010PropOp35
 70
     1
102
RTVSPost2010Prop36
280
     0
102
RTVSPost2010PropOp36
 70
     1
102
RTVSPost2010Prop37
 90
       50
102
RTVSPost2010PropOp37
 70
     1
102
RTVSPost2010Prop38
140
0.0
102
RTVSPost2010PropOp38
 70
     1
102
RTVSPost2010Prop39
140
1.0
102
RTVSPost2010PropOp39
 70
     1
102
RTVSPost2010Prop40
 90
        0
102
RTVSPost2010PropOp40
 70
     1
102
RTVSPost2010Prop41ColorIndex
 90
       18
102
RTVSPost2010Prop41ColorRGB
 90
        0
102
RTVSPost2010PropOp41
 70
     1
102
RTVSPost2010Prop42
 90
       50
102
RTVSPost2010PropOp42
 70
     1
102
RTVSPost2010Prop43
 90
        3
102
RTVSPost2010PropOp43
 70
     1
102
RTVSPost2010Prop44ColorIndex
 90
        5
102
RTVSPost2010Prop44ColorRGB
 90
      255
102
RTVSPost2010PropOp44
 70
     1
102
RTVSPost2010Prop45
280
     0
102
RTVSPost2010PropOp45
 70
     1
102
RTVSPost2010Prop46
 90
       50
102
RTVSPost2010PropOp46
 70
     1
102
RTVSPost2010Prop47
 90
       50
102
RTVSPost2010PropOp47
 70
     1
102
RTVSPost2010Prop48
 90
       50
102
RTVSPost2010PropOp48
 70
     1
102
RTVSPost2010Prop49
280
     0
102
RTVSPost2010PropOp49
 70
     1
102
RTVSPost2010Prop50
 90
       50
102
RTVSPost2010PropOp50
 70
     1
102
RTVSPost2010Prop51ColorIndex
 90
      256
102
RTVSPost2010Prop51ColorRGB
 90
-16777216
102
RTVSPost2010PropOp51
 70
     0
102
RTVSPost2010Prop52
140
1.0
102
RTVSPost2010PropOp52
 70
     0
102
RTVSPost2010Prop53
 90
        2
102
RTVSPost2010PropOp53
 70
     1
102
RTVSPost2010Prop54
  1
strokes_ogs.tif
102
RTVSPost2010PropOp54
 70
     1
102
RTVSPost2010Prop55
280
     0
102
RTVSPost2010PropOp55
 70
     1
102
RTVSPost2010Prop56
140
1.0
102
RTVSPost2010PropOp56
 70
     1
102
RTVSPost2010Prop57
140
1.0
102
RTVSPost2010PropOp57
 70
     1
  0
XRECORD
  5
3A9
102
{ACAD_REACTORS
330
3A8
102
}
330
3A8
100
AcDbXrecord
280
     1
102
RTVSPropertyOp0
 70
     1
102
RTVSPropertyOp1
 70
     1
102
RTVSPropertyOp2
 70
     1
102
RTVSPropertyOp3
 70
     1
102
RTVSPropertyOp4
 70
     1
102
RTVSPropertyOp5
 70
     1
102
RTVSPropertyOp6
 70
     1
102
RTVSPropertyOp7
 70
     1
102
RTVSPropertyOp8
 70
     1
102
RTVSPropertyOp9
 70
     1
102
RTVSPropertyOp10
 70
     1
102
RTVSPropertyOp11
 70
     1
102
RTVSPropertyOp12
 70
     1
102
RTVSPropertyOp13
 70
     1
102
RTVSPropertyOp14
 70
     1
102
RTVSPropertyOp15
 70
     1
102
RTVSPropertyOp16
 70
     1
102
RTVSPropertyOp17
 70
     1
102
RTVSPropertyOp18
 70
     1
102
RTVSPropertyOp19
 70
     1
102
RTVSPropertyOp20
 70
     1
102
RTVSPropertyOp21
 70
     1
102
RTVSPropertyOp22
 70
     1
102
RTVSPropertyOp23
 70
     1
102
RTVSPropertyOp24
 70
     1
102
RTVSPropertyOp25
 70
     1
102
RTVSPropertyOp26
 70
     1
102
RTVSPropertyOp27
 70
     1
102
RTVSPropertyOp28
 70
     1
102
RTVSPropertyOp29
 70
     1
102
RTVSPropertyOp30
 70
     1
102
RTVSPropertyOp31
 70
     1
102
RTVSPropertyOp32
 70
     1
102
RTVSPropertyOp33
 70
     1
102
RTVSPropertyOp34
 70
     1
102
RTVSPropertyOp35
 70
     1
102
RTVSPropertyOp36
 70
     1
102
RTVSPropertyOp37
 70
     1
102
RTVSPropertyOp38
 70
     1
102
RTVSPropertyOp39
 70
     1
102
RTVSPropertyOp40
 70
     1
102
RTVSPropertyOp41
 70
     1
102
RTVSPropertyOp42
 70
     1
102
RTVSPropertyOp43
 70
     1
102
RTVSPropertyOp44
 70
     1
102
RTVSPropertyOp45
 70
     1
102
RTVSPropertyOp46
 70
     1
102
RTVSPropertyOp47
 70
     1
102
RTVSPropertyOp48
 70
     1
102
RTVSPropertyOp49
 70
     1
102
RTVSPropertyOp50
 70
     1
102
RTVSPropertyOp51
 70
     0
102
RTVSPropertyOp52
 70
     0
102
RTVSPropertyOp53
 70
     1
102
RTVSPropertyOp54
 70
     1
102
RTVSPropertyOp55
 70
     1
102
RTVSPropertyOp56
 70
     1
102
RTVSPropertyOp57
 70
     1
102
RTVSPost2010Prop28
280
     0
102
RTVSPost2010PropOp28
 70
     1
102
RTVSPost2010Prop29
280
     1
102
RTVSPost2010PropOp29
 70
     1
102
RTVSPost2010Prop30
280
     1
102
RTVSPost2010PropOp30
 70
     1
102
RTVSPost2010Prop31
280
     0
102
RTVSPost2010PropOp31
 70
     1
102
RTVSPost2010Prop32
280
     0
102
RTVSPost2010PropOp32
 70
     1
102
RTVSPost2010Prop33
280
     0
102
RTVSPost2010PropOp33
 70
     1
102
RTVSPost2010Prop34
280
     0
102
RTVSPost2010PropOp34
 70
     1
102
RTVSPost2010Prop35
280
     0
102
RTVSPost2010PropOp35
 70
     1
102
RTVSPost2010Prop36
280
     0
102
RTVSPost2010PropOp36
 70
     1
102
RTVSPost2010Prop37
 90
       50
102
RTVSPost2010PropOp37
 70
     1
102
RTVSPost2010Prop38
140
0.0
102
RTVSPost2010PropOp38
 70
     1
102
RTVSPost2010Prop39
140
1.0
102
RTVSPost2010PropOp39
 70
     1
102
RTVSPost2010Prop40
 90
        0
102
RTVSPost2010PropOp40
 70
     1
102
RTVSPost2010Prop41ColorIndex
 90
       18
102
RTVSPost2010Prop41ColorRGB
 90
        0
102
RTVSPost2010PropOp41
 70
     1
102
RTVSPost2010Prop42
 90
       50
102
RTVSPost2010PropOp42
 70
     1
102
RTVSPost2010Prop43
 90
        3
102
RTVSPost2010PropOp43
 70
     1
102
RTVSPost2010Prop44ColorIndex
 90
        5
102
RTVSPost2010Prop44ColorRGB
 90
      255
102
RTVSPost2010PropOp44
 70
     1
102
RTVSPost2010Prop45
280
     0
102
RTVSPost2010PropOp45
 70
     1
102
RTVSPost2010Prop46
 90
       50
102
RTVSPost2010PropOp46
 70
     1
102
RTVSPost2010Prop47
 90
       50
102
RTVSPost2010PropOp47
 70
     1
102
RTVSPost2010Prop48
 90
       50
102
RTVSPost2010PropOp48
 70
     1
102
RTVSPost2010Prop49
280
     0
102
RTVSPost2010PropOp49
 70
     1
102
RTVSPost2010Prop50
 90
       50
102
RTVSPost2010PropOp50
 70
     1
102
RTVSPost2010Prop51ColorIndex
 90
      256
102
RTVSPost2010Prop51ColorRGB
 90
-16777216
102
RTVSPost2010PropOp51
 70
     0
102
RTVSPost2010Prop52
140
1.0
102
RTVSPost2010PropOp52
 70
     0
102
RTVSPost2010Prop53
 90
        2
102
RTVSPost2010PropOp53
 70
     1
102
RTVSPost2010Prop54
  1
strokes_ogs.tif
102
RTVSPost2010PropOp54
 70
     1
102
RTVSPost2010Prop55
280
     0
102
RTVSPost2010PropOp55
 70
     1
102
RTVSPost2010Prop56
140
1.0
102
RTVSPost2010PropOp56
 70
     1
102
RTVSPost2010Prop57
140
1.0
102
RTVSPost2010PropOp57
 70
     1
  0
XRECORD
  5
399
102
{ACAD_REACTORS
330
398
102
}
330
398
100
AcDbXrecord
280
     1
102
RTVSPropertyOp0
 70
     1
102
RTVSPropertyOp1
 70
     1
102
RTVSPropertyOp2
 70
     1
102
RTVSPropertyOp3
 70
     1
102
RTVSPropertyOp4
 70
     1
102
RTVSPropertyOp5
 70
     1
102
RTVSPropertyOp6
 70
     1
102
RTVSPropertyOp7
 70
     1
102
RTVSPropertyOp8
 70
     1
102
RTVSPropertyOp9
 70
     1
102
RTVSPropertyOp10
 70
     1
102
RTVSPropertyOp11
 70
     1
102
RTVSPropertyOp12
 70
     1
102
RTVSPropertyOp13
 70
     1
102
RTVSPropertyOp14
 70
     1
102
RTVSPropertyOp15
 70
     1
102
RTVSPropertyOp16
 70
     1
102
RTVSPropertyOp17
 70
     1
102
RTVSPropertyOp18
 70
     1
102
RTVSPropertyOp19
 70
     1
102
RTVSPropertyOp20
 70
     1
102
RTVSPropertyOp21
 70
     1
102
RTVSPropertyOp22
 70
     1
102
RTVSPropertyOp23
 70
     1
102
RTVSPropertyOp24
 70
     1
102
RTVSPropertyOp25
 70
     1
102
RTVSPropertyOp26
 70
     1
102
RTVSPropertyOp27
 70
     1
102
RTVSPropertyOp28
 70
     1
102
RTVSPropertyOp29
 70
     1
102
RTVSPropertyOp30
 70
     1
102
RTVSPropertyOp31
 70
     1
102
RTVSPropertyOp32
 70
     1
102
RTVSPropertyOp33
 70
     1
102
RTVSPropertyOp34
 70
     1
102
RTVSPropertyOp35
 70
     1
102
RTVSPropertyOp36
 70
     1
102
RTVSPropertyOp37
 70
     1
102
RTVSPropertyOp38
 70
     1
102
RTVSPropertyOp39
 70
     1
102
RTVSPropertyOp40
 70
     1
102
RTVSPropertyOp41
 70
     1
102
RTVSPropertyOp42
 70
     1
102
RTVSPropertyOp43
 70
     1
102
RTVSPropertyOp44
 70
     1
102
RTVSPropertyOp45
 70
     1
102
RTVSPropertyOp46
 70
     1
102
RTVSPropertyOp47
 70
     1
102
RTVSPropertyOp48
 70
     1
102
RTVSPropertyOp49
 70
     1
102
RTVSPropertyOp50
 70
     1
102
RTVSPropertyOp51
 70
     0
102
RTVSPropertyOp52
 70
     0
102
RTVSPropertyOp53
 70
     1
102
RTVSPropertyOp54
 70
     1
102
RTVSPropertyOp55
 70
     1
102
RTVSPropertyOp56
 70
     1
102
RTVSPropertyOp57
 70
     1
102
RTVSPost2010Prop28
280
     0
102
RTVSPost2010PropOp28
 70
     1
102
RTVSPost2010Prop29
280
     1
102
RTVSPost2010PropOp29
 70
     1
102
RTVSPost2010Prop30
280
     1
102
RTVSPost2010PropOp30
 70
     1
102
RTVSPost2010Prop31
280
     0
102
RTVSPost2010PropOp31
 70
     1
102
RTVSPost2010Prop32
280
     0
102
RTVSPost2010PropOp32
 70
     1
102
RTVSPost2010Prop33
280
     0
102
RTVSPost2010PropOp33
 70
     1
102
RTVSPost2010Prop34
280
     0
102
RTVSPost2010PropOp34
 70
     1
102
RTVSPost2010Prop35
280
     0
102
RTVSPost2010PropOp35
 70
     1
102
RTVSPost2010Prop36
280
     0
102
RTVSPost2010PropOp36
 70
     1
102
RTVSPost2010Prop37
 90
       50
102
RTVSPost2010PropOp37
 70
     1
102
RTVSPost2010Prop38
140
0.0
102
RTVSPost2010PropOp38
 70
     1
102
RTVSPost2010Prop39
140
1.0
102
RTVSPost2010PropOp39
 70
     1
102
RTVSPost2010Prop40
 90
        0
102
RTVSPost2010PropOp40
 70
     1
102
RTVSPost2010Prop41ColorIndex
 90
       18
102
RTVSPost2010Prop41ColorRGB
 90
        0
102
RTVSPost2010PropOp41
 70
     1
102
RTVSPost2010Prop42
 90
       50
102
RTVSPost2010PropOp42
 70
     1
102
RTVSPost2010Prop43
 90
        3
102
RTVSPost2010PropOp43
 70
     1
102
RTVSPost2010Prop44ColorIndex
 90
        5
102
RTVSPost2010Prop44ColorRGB
 90
      255
102
RTVSPost2010PropOp44
 70
     1
102
RTVSPost2010Prop45
280
     0
102
RTVSPost2010PropOp45
 70
     1
102
RTVSPost2010Prop46
 90
       50
102
RTVSPost2010PropOp46
 70
     1
102
RTVSPost2010Prop47
 90
       50
102
RTVSPost2010PropOp47
 70
     1
102
RTVSPost2010Prop48
 90
       50
102
RTVSPost2010PropOp48
 70
     1
102
RTVSPost2010Prop49
280
     0
102
RTVSPost2010PropOp49
 70
     1
102
RTVSPost2010Prop50
 90
       50
102
RTVSPost2010PropOp50
 70
     1
102
RTVSPost2010Prop51ColorIndex
 90
      256
102
RTVSPost2010Prop51ColorRGB
 90
-16777216
102
RTVSPost2010PropOp51
 70
     0
102
RTVSPost2010Prop52
140
1.0
102
RTVSPost2010PropOp52
 70
     0
102
RTVSPost2010Prop53
 90
        2
102
RTVSPost2010PropOp53
 70
     1
102
RTVSPost2010Prop54
  1
strokes_ogs.tif
102
RTVSPost2010PropOp54
 70
     1
102
RTVSPost2010Prop55
280
     0
102
RTVSPost2010PropOp55
 70
     1
102
RTVSPost2010Prop56
140
1.0
102
RTVSPost2010PropOp56
 70
     1
102
RTVSPost2010Prop57
140
1.0
102
RTVSPost2010PropOp57
 70
     1
  0
XRECORD
  5
38B
102
{ACAD_REACTORS
330
38A
102
}
330
38A
100
AcDbXrecord
280
     1
102
RTVSPropertyOp0
 70
     1
102
RTVSPropertyOp1
 70
     1
102
RTVSPropertyOp2
 70
     1
102
RTVSPropertyOp3
 70
     1
102
RTVSPropertyOp4
 70
     1
102
RTVSPropertyOp5
 70
     1
102
RTVSPropertyOp6
 70
     1
102
RTVSPropertyOp7
 70
     1
102
RTVSPropertyOp8
 70
     1
102
RTVSPropertyOp9
 70
     1
102
RTVSPropertyOp10
 70
     1
102
RTVSPropertyOp11
 70
     1
102
RTVSPropertyOp12
 70
     1
102
RTVSPropertyOp13
 70
     1
102
RTVSPropertyOp14
 70
     1
102
RTVSPropertyOp15
 70
     1
102
RTVSPropertyOp16
 70
     1
102
RTVSPropertyOp17
 70
     1
102
RTVSPropertyOp18
 70
     1
102
RTVSPropertyOp19
 70
     1
102
RTVSPropertyOp20
 70
     1
102
RTVSPropertyOp21
 70
     1
102
RTVSPropertyOp22
 70
     1
102
RTVSPropertyOp23
 70
     1
102
RTVSPropertyOp24
 70
     1
102
RTVSPropertyOp25
 70
     1
102
RTVSPropertyOp26
 70
     1
102
RTVSPropertyOp27
 70
     1
102
RTVSPropertyOp28
 70
     1
102
RTVSPropertyOp29
 70
     1
102
RTVSPropertyOp30
 70
     1
102
RTVSPropertyOp31
 70
     1
102
RTVSPropertyOp32
 70
     1
102
RTVSPropertyOp33
 70
     1
102
RTVSPropertyOp34
 70
     1
102
RTVSPropertyOp35
 70
     1
102
RTVSPropertyOp36
 70
     1
102
RTVSPropertyOp37
 70
     1
102
RTVSPropertyOp38
 70
     1
102
RTVSPropertyOp39
 70
     1
102
RTVSPropertyOp40
 70
     1
102
RTVSPropertyOp41
 70
     1
102
RTVSPropertyOp42
 70
     1
102
RTVSPropertyOp43
 70
     1
102
RTVSPropertyOp44
 70
     1
102
RTVSPropertyOp45
 70
     1
102
RTVSPropertyOp46
 70
     1
102
RTVSPropertyOp47
 70
     1
102
RTVSPropertyOp48
 70
     1
102
RTVSPropertyOp49
 70
     1
102
RTVSPropertyOp50
 70
     1
102
RTVSPropertyOp51
 70
     0
102
RTVSPropertyOp52
 70
     0
102
RTVSPropertyOp53
 70
     1
102
RTVSPropertyOp54
 70
     1
102
RTVSPropertyOp55
 70
     1
102
RTVSPropertyOp56
 70
     1
102
RTVSPropertyOp57
 70
     1
102
RTVSPost2010Prop28
280
     0
102
RTVSPost2010PropOp28
 70
     1
102
RTVSPost2010Prop29
280
     1
102
RTVSPost2010PropOp29
 70
     1
102
RTVSPost2010Prop30
280
     1
102
RTVSPost2010PropOp30
 70
     1
102
RTVSPost2010Prop31
280
     0
102
RTVSPost2010PropOp31
 70
     1
102
RTVSPost2010Prop32
280
     0
102
RTVSPost2010PropOp32
 70
     1
102
RTVSPost2010Prop33
280
     0
102
RTVSPost2010PropOp33
 70
     1
102
RTVSPost2010Prop34
280
     0
102
RTVSPost2010PropOp34
 70
     1
102
RTVSPost2010Prop35
280
     0
102
RTVSPost2010PropOp35
 70
     1
102
RTVSPost2010Prop36
280
     0
102
RTVSPost2010PropOp36
 70
     1
102
RTVSPost2010Prop37
 90
       50
102
RTVSPost2010PropOp37
 70
     1
102
RTVSPost2010Prop38
140
0.0
102
RTVSPost2010PropOp38
 70
     1
102
RTVSPost2010Prop39
140
1.0
102
RTVSPost2010PropOp39
 70
     1
102
RTVSPost2010Prop40
 90
        0
102
RTVSPost2010PropOp40
 70
     1
102
RTVSPost2010Prop41ColorIndex
 90
       18
102
RTVSPost2010Prop41ColorRGB
 90
        0
102
RTVSPost2010PropOp41
 70
     1
102
RTVSPost2010Prop42
 90
       50
102
RTVSPost2010PropOp42
 70
     1
102
RTVSPost2010Prop43
 90
        3
102
RTVSPost2010PropOp43
 70
     1
102
RTVSPost2010Prop44ColorIndex
 90
        5
102
RTVSPost2010Prop44ColorRGB
 90
      255
102
RTVSPost2010PropOp44
 70
     1
102
RTVSPost2010Prop45
280
     0
102
RTVSPost2010PropOp45
 70
     1
102
RTVSPost2010Prop46
 90
       50
102
RTVSPost2010PropOp46
 70
     1
102
RTVSPost2010Prop47
 90
       50
102
RTVSPost2010PropOp47
 70
     1
102
RTVSPost2010Prop48
 90
       50
102
RTVSPost2010PropOp48
 70
     1
102
RTVSPost2010Prop49
280
     0
102
RTVSPost2010PropOp49
 70
     1
102
RTVSPost2010Prop50
 90
       50
102
RTVSPost2010PropOp50
 70
     1
102
RTVSPost2010Prop51ColorIndex
 90
      256
102
RTVSPost2010Prop51ColorRGB
 90
-16777216
102
RTVSPost2010PropOp51
 70
     0
102
RTVSPost2010Prop52
140
1.0
102
RTVSPost2010PropOp52
 70
     0
102
RTVSPost2010Prop53
 90
        2
102
RTVSPost2010PropOp53
 70
     1
102
RTVSPost2010Prop54
  1
strokes_ogs.tif
102
RTVSPost2010PropOp54
 70
     1
102
RTVSPost2010Prop55
280
     0
102
RTVSPost2010PropOp55
 70
     1
102
RTVSPost2010Prop56
140
1.0
102
RTVSPost2010PropOp56
 70
     1
102
RTVSPost2010Prop57
140
1.0
102
RTVSPost2010PropOp57
 70
     1
  0
XRECORD
  5
3AB
102
{ACAD_REACTORS
330
3AA
102
}
330
3AA
100
AcDbXrecord
280
     1
102
RTVSPropertyOp0
 70
     1
102
RTVSPropertyOp1
 70
     1
102
RTVSPropertyOp2
 70
     1
102
RTVSPropertyOp3
 70
     1
102
RTVSPropertyOp4
 70
     1
102
RTVSPropertyOp5
 70
     1
102
RTVSPropertyOp6
 70
     1
102
RTVSPropertyOp7
 70
     1
102
RTVSPropertyOp8
 70
     1
102
RTVSPropertyOp9
 70
     1
102
RTVSPropertyOp10
 70
     1
102
RTVSPropertyOp11
 70
     1
102
RTVSPropertyOp12
 70
     1
102
RTVSPropertyOp13
 70
     1
102
RTVSPropertyOp14
 70
     1
102
RTVSPropertyOp15
 70
     1
102
RTVSPropertyOp16
 70
     1
102
RTVSPropertyOp17
 70
     1
102
RTVSPropertyOp18
 70
     1
102
RTVSPropertyOp19
 70
     1
102
RTVSPropertyOp20
 70
     1
102
RTVSPropertyOp21
 70
     1
102
RTVSPropertyOp22
 70
     1
102
RTVSPropertyOp23
 70
     1
102
RTVSPropertyOp24
 70
     1
102
RTVSPropertyOp25
 70
     1
102
RTVSPropertyOp26
 70
     1
102
RTVSPropertyOp27
 70
     1
102
RTVSPropertyOp28
 70
     1
102
RTVSPropertyOp29
 70
     1
102
RTVSPropertyOp30
 70
     1
102
RTVSPropertyOp31
 70
     1
102
RTVSPropertyOp32
 70
     1
102
RTVSPropertyOp33
 70
     1
102
RTVSPropertyOp34
 70
     1
102
RTVSPropertyOp35
 70
     1
102
RTVSPropertyOp36
 70
     1
102
RTVSPropertyOp37
 70
     1
102
RTVSPropertyOp38
 70
     1
102
RTVSPropertyOp39
 70
     1
102
RTVSPropertyOp40
 70
     1
102
RTVSPropertyOp41
 70
     1
102
RTVSPropertyOp42
 70
     1
102
RTVSPropertyOp43
 70
     1
102
RTVSPropertyOp44
 70
     1
102
RTVSPropertyOp45
 70
     1
102
RTVSPropertyOp46
 70
     1
102
RTVSPropertyOp47
 70
     1
102
RTVSPropertyOp48
 70
     1
102
RTVSPropertyOp49
 70
     1
102
RTVSPropertyOp50
 70
     1
102
RTVSPropertyOp51
 70
     0
102
RTVSPropertyOp52
 70
     0
102
RTVSPropertyOp53
 70
     1
102
RTVSPropertyOp54
 70
     1
102
RTVSPropertyOp55
 70
     1
102
RTVSPropertyOp56
 70
     1
102
RTVSPropertyOp57
 70
     1
102
RTVSPost2010Prop28
280
     0
102
RTVSPost2010PropOp28
 70
     1
102
RTVSPost2010Prop29
280
     1
102
RTVSPost2010PropOp29
 70
     1
102
RTVSPost2010Prop30
280
     1
102
RTVSPost2010PropOp30
 70
     1
102
RTVSPost2010Prop31
280
     0
102
RTVSPost2010PropOp31
 70
     1
102
RTVSPost2010Prop32
280
     0
102
RTVSPost2010PropOp32
 70
     1
102
RTVSPost2010Prop33
280
     0
102
RTVSPost2010PropOp33
 70
     1
102
RTVSPost2010Prop34
280
     0
102
RTVSPost2010PropOp34
 70
     1
102
RTVSPost2010Prop35
280
     0
102
RTVSPost2010PropOp35
 70
     1
102
RTVSPost2010Prop36
280
     0
102
RTVSPost2010PropOp36
 70
     1
102
RTVSPost2010Prop37
 90
       50
102
RTVSPost2010PropOp37
 70
     1
102
RTVSPost2010Prop38
140
0.0
102
RTVSPost2010PropOp38
 70
     1
102
RTVSPost2010Prop39
140
1.0
102
RTVSPost2010PropOp39
 70
     1
102
RTVSPost2010Prop40
 90
        0
102
RTVSPost2010PropOp40
 70
     1
102
RTVSPost2010Prop41ColorIndex
 90
       18
102
RTVSPost2010Prop41ColorRGB
 90
        0
102
RTVSPost2010PropOp41
 70
     1
102
RTVSPost2010Prop42
 90
       50
102
RTVSPost2010PropOp42
 70
     1
102
RTVSPost2010Prop43
 90
        3
102
RTVSPost2010PropOp43
 70
     1
102
RTVSPost2010Prop44ColorIndex
 90
        5
102
RTVSPost2010Prop44ColorRGB
 90
      255
102
RTVSPost2010PropOp44
 70
     1
102
RTVSPost2010Prop45
280
     0
102
RTVSPost2010PropOp45
 70
     1
102
RTVSPost2010Prop46
 90
       50
102
RTVSPost2010PropOp46
 70
     1
102
RTVSPost2010Prop47
 90
       50
102
RTVSPost2010PropOp47
 70
     1
102
RTVSPost2010Prop48
 90
       50
102
RTVSPost2010PropOp48
 70
     1
102
RTVSPost2010Prop49
280
     0
102
RTVSPost2010PropOp49
 70
     1
102
RTVSPost2010Prop50
 90
       50
102
RTVSPost2010PropOp50
 70
     1
102
RTVSPost2010Prop51ColorIndex
 90
      256
102
RTVSPost2010Prop51ColorRGB
 90
-16777216
102
RTVSPost2010PropOp51
 70
     0
102
RTVSPost2010Prop52
140
1.0
102
RTVSPost2010PropOp52
 70
     0
102
RTVSPost2010Prop53
 90
        2
102
RTVSPost2010PropOp53
 70
     1
102
RTVSPost2010Prop54
  1
strokes_ogs.tif
102
RTVSPost2010PropOp54
 70
     1
102
RTVSPost2010Prop55
280
     0
102
RTVSPost2010PropOp55
 70
     1
102
RTVSPost2010Prop56
140
1.0
102
RTVSPost2010PropOp56
 70
     1
102
RTVSPost2010Prop57
140
1.0
102
RTVSPost2010PropOp57
 70
     1
  0
ENDSEC
  0
SECTION
  2
THUMBNAILIMAGE
 90
    16364
310
28000000B40000005500000001000800000000000000000000000000000000000000000000000000FFFFFF00FF000000FFFF000000FF000000FFFF000000FF00FF00FF000000000080808000C0C0C000FF000000FF7F7F00A5000000A55252007F0000007F3F3F004C0000004C2626002600000026131300FF3F0000FF9F7F
310
00A5290000A56752007F1F00007F4F3F004C1300004C2F26002609000026171300FF7F0000FFBF7F00A5520000A57C52007F3F00007F5F3F004C2600004C39260026130000261C1300FFBF0000FFDF7F00A57C0000A59152007F5F00007F6F3F004C3900004C422600261C000026211300FFFF0000FFFF7F00A5A50000A5A5
310
52007F7F00007F7F3F004C4C00004C4C26002626000026261300BFFF0000DFFF7F007CA5000091A552005F7F00006F7F3F00394C0000424C26001C260000212613007FFF0000BFFF7F0052A500007CA552003F7F00005F7F3F00264C0000394C2600132600001C2613003FFF00009FFF7F0029A5000067A552001F7F00004F
310
7F3F00134C00002F4C2600092600001726130000FF00007FFF7F0000A5000052A55200007F00003F7F3F00004C0000264C2600002600001326130000FF3F007FFF9F0000A5290052A56700007F1F003F7F4F00004C1300264C2F00002609001326170000FF7F007FFFBF0000A5520052A57C00007F3F003F7F5F00004C2600
310
264C39000026130013261C0000FFBF007FFFDF0000A57C0052A59100007F5F003F7F6F00004C3900264C420000261C001326210000FFFF007FFFFF0000A5A50052A5A500007F7F003F7F7F00004C4C00264C4C00002626001326260000BFFF007FDFFF00007CA5005291A500005F7F003F6F7F0000394C0026424C00001C26
310
0013212600007FFF007FBFFF000052A500527CA500003F7F003F5F7F0000264C0026394C0000132600131C2600003FFF007F9FFF000029A5005267A500001F7F003F4F7F0000134C00262F4C0000092600131726000000FF007F7FFF000000A5005252A50000007F003F3F7F0000004C0026264C0000002600131326003F00
310
FF009F7FFF002900A5006752A5001F007F004F3F7F0013004C002F264C0009002600171326007F00FF00BF7FFF005200A5007C52A5003F007F005F3F7F0026004C0039264C00130026001C132600BF00FF00DF7FFF007C00A5009152A5005F007F006F3F7F0039004C0042264C001C00260021132600FF00FF00FF7FFF00A5
310
00A500A552A5007F007F007F3F7F004C004C004C264C002600260026132600FF00BF00FF7FDF00A5007C00A55291007F005F007F3F6F004C0039004C26420026001C0026132100FF007F00FF7FBF00A5005200A5527C007F003F007F3F5F004C0026004C2639002600130026131C00FF003F00FF7F9F00A5002900A5526700
310
7F001F007F3F4F004C0013004C262F002600090026131700000000002D2D2D005B5B5B0089898900B7B7B700B3B3B30000000000000000000000000000000000000000000000000000000000000000000000000000000000000000000000000000000000000000000000000000000000000000000000000000000000000000
310
00000000000000000000000000000000000000000000000000000000000000000000000000000000000000000000000000000000000000000000000000000000000000000000000000000000000000000000000000000000000000000000000000000000000000000000000000000000000000000000000000000000000000
310
00000000000000000000000000000000000000000000000000000000000000000000000000000000000000000000000000000000000000000000000000000000000000000000000000000000000000000000000000000000000000000000000000000000000000000000000000000000000000000000000000000000000000
310
00000000000000000000000000000000000000000000000000000000000000000000000000000000000000000000000000000000000000000000000000000000000000000000000000000000000000000000000000000000000000000000000000000000000000000000000000000000000000000000000000000000000000
310
00000000000000000000000000000000000000000000000000000000000000000000000000000000000000000000000000000000000000000000000000000000000000000000000000000000000000000000000000000000000000000000000000000000000000000000000000000000000000000000000000000000000000
310
00000000000000000000000000000000000000000000000000000000000000000000000000000000000000000000000000070000000000000000000000000000000000000000000000000000000000000000000000000000000000000000000000000000000000000000000000000000000000000000000000000000000000
310
00000000000000000000000000000000000000000000000000000000000000000000000000000000000000000000000000000000000000000000000000000000000000000000000000000000000000000000000000000000000000000000000000000007070707070707070707070707070707070707070000000000000000
310
00000000000000000000000000000000000000000000000000000000000000000000000000000000000000000000000000000000000000000000000000000000000000000000000000000000000000000000000000000000000000000000000000000000000000000000000000000000000000000000000000000000000000
310
00000000000000000000000000000000000000000000000000070000000700000000000707070000000000000700000000000000000000000000000000000000000000000000000000000000000000000000000000000000000000000000000000000000000000000000000000000000000000000000000000000000000000
310
00000000000000000000000000000000000000000000000000000000000000000000000000000000000000000000000000000000000000000000000000000000000000000000000000000000000007070707070707070707070707070707070707070000000000000000000000000000000000000000000000000000000000
310
00000000000000000000000000000000000000000000000000000000000000000000000000000000000000000000000000000000000000000000000000000000000000000000000000000000000000000000000000000000000000000000000000000000000000000000000000000000000000000000000000000000000000
310
00000000070707070700070707070707070707070700000700000000000000000000000000000000000000000000000000000000000000000000000000000000000000000000000000000000000000000000000000000000000000000000000000000000000000000000000000000000000000000000000000000000000000
310
00000000000000000000000000000000000000000000000000000000000000000000000000000000000000000000000000000000000000000007000000070000070707070707070707000000070000000000000000000000000000000000000000000000000000000000000000000000000000000000000000000000000000
310
00000000000000000000000000000000000000000000000000000000000000000000000000000000000000000000000000000000000000000000000000000000000000000000000000000000000000000000000000000000000000000000000000000000000000000000000000000700000007000000070707070707070700
310
00000700000000000000000000000000000000000000000000000000000000000000000000000000000000000000000000000000000000000000000000000000000000000000000000000000000000000000000000000000000000000000000000000000000000000000000000000000000000000000000000000000000000
310
00000000000000000000000000000000000000000000000000000000000000000000000007070707070707070707070707070707070707070000000000000000000000000000000000000000000000000000000000000000000000000000000000000000000000000000000000000000000000000000000000000000000000
310
00000000000000000000000000000000000000000000000000000000000000000000000000000000000000000000000000000000000000000000000000000000000000000000000000000000000000000000000000000000000000000000000000000000000000000000000000000000000000000000000000000000000000
310
00000000000000000000000000000000000000000000000000000000000000000000000000000000000000000000000000000000000000000000000000000000000000000000000000000000000000000000000000000000000000000000000000000000000000000000000000000000000000000000000000000000000000
310
00000000000000000000000000000000000000000000000000000000000000000000000000000000000000000000000000000000000000000000000000000000000000000000000000000000000000000000000000000000000000000000000000000000000000000000000000000000000000000000000000000000000000
310
00000000000000000000000000000000000000000000000000000000000000000000000000000000000000000000000000000000000000000000000000000000000000000000000000000000000000000000000000000000000000000000000000000000000000000000000000000000000000000000000000000000000000
310
00000000000000000000000000000000000000000000000000000000000000000000000000000000000000000000000000000000000000000000000000000000000000000000000000000000000000000000000000000000000000000000000000000000000000000000000000000000000000000000000000000000000000
310
00000000000000000000000000000000000000000000000000000000000000000000000000000000000000000000000000000000000000000000000000000000000000000000000000000000000000000000000000000000000000000000000000000000000000000000000000000000000000000000000000000000000000
310
00000000000000000000000000000000000000000000000000000000000000000000000000000000000000000000000000000000000000000000000000000000000000000000000000000000000000000000000000000000000000000000000000000000000000000000000000000000000000000000000000000000000000
310
00000000000000000000000000000000000000000000000000000000000000000000000000000000000000000000000000000000000000000000000000000000000000000000000000000000000000000000000000000000000000000000000000000000000000000000000000000000000000000000000000000000000000
310
00000000000000000000000000000000000000000000000000000000000000000000000000000000000000000000000000000000000000000000000000000000000000000000000000000000000000000000000000000000000000000000000000000000000000000000000000000000000000000000000000000000000000
310
00000000000000000000000000000000000000000000000000000000000000000000000000000000000000000000000000000000000000000000000000000000000000000000000000000000000000000000000000000000000000000000000000000000000000000000000000000000000000000000000000000000000000
310
00000000000000000000000000000000000000000000000000000000000000000000000000000000000000000000000000000000000000000000000000000000000000000000000000000000000000000000000000000000000000000000000000000000000000000000000000000000000000000000000000000000000000
310
00000000000000000000000000000000000000000000000000000000000000000000000000000000000000000000000000000000000000000000000000000000000000000000000000000000000000000000000000000000000000000000000000000000000000000000000000000000000000000000000000000000000000
310
00000000000000000000000000000000000000000000000000000000000000000000000000000000000000000000000000000000000000000000000000000000000000000000000000000000000000000000000000000000000000000000000000000000000000000000000000000000000000000000000000000000000000
310
00000000000000000000000000000000000000000000000000000000000000000000000000000000000000000000000000000000000000000000000000000000000000000000000000000000000000000000000000000000000000000000000000000000000000000000000000000000000000000000000000000000000000
310
00000000000000000000000000000000000000000000000000000000000000000000000000000000000000000000000000000000000000000000000000000000000000000000000000000000000000000000000000000000000000000000000000000000000000000000000000000000000000000000000000000000000000
310
00000000000000000000000000000000000000000000000000000000000000000000000000000000000000000000000000000000000000000000000000000000000000000000000000000000000000000000000000000000000000000000000000000000000000000000000000000000000000000000000000000000000000
310
00000000000000000000000000000000000000000000000000000000000000000300000000000000000000000000000000000000000000000000000000000000000000000000000000000000000000000000000000000000000000000000000000000000000000000000000000000000000000000000000000000000000000
310
00000000000000000000000000000000000000000000000000000000000000000000000000000000000000000000000000000000000000000000000000000000009696960808080808080808080808080808080808080808080808080808080808080808080808969696000000000000000000000000000000000000000000
310
00000000000000000000000000000000000000000000000000000000000000000000000000000000000000000000000000000000000000000000000000000000000000000000000000000000000000000000000000000000000000000000000000000000000000000000000000000000000000000000969600080000000000
310
00000808969696080000000300000000000000000000000000000000080096960000000000000000000000000000000000000000000000000000000000000000000000000000000000000000000000000000000000000000000000000000000000000000000000000000000000000000000000000000000000000000000000
310
00000000000000000000000000000000000000000000000000000000000000000000000000000000000000000000969600000000000000080800000008000000030000000000000000000000000000000096960000000000000000000000000000000000000000000000000000000000000000000000000000000000000000
310
00000000000000000000000000000000000000000000000000000000000000000000000000000000000000000000000000000000000000000000000000000000000000000000000000000000000000000000000000000000000000000000000000000000080000000000000008080808080800000003000000000000000000
310
00000000000000080000000000000000000000000000000000000000000000000000000000000000000000000000000000000000000000000000000000000000000000000000000000000000000000000000000000000000000000000000000000000000000000000000000000000000000000000000000000000000000000
310
00000000000000000000000000000000000000000000000000000800000000000200000000000000000000070700000000000000000002000000000008000000000000000000000000000000000000000000000000000000000000000000000000000000000000000000000000000000000000000000000000000000000000
310
00000000000000000000000000000000000000000000000000000000000000000000000000000000000000000000000000000000000000000000000000000000000000000000000000000000000000080000000002020202000000000000080707080803000000000002020202020000000800000000000000000000000000
310
00000000000000000000000000000000000000000000000000000000000000000000000000000000000000000000000000000000000000000000000000000000000000000000000000000000000000000000000000000000000000000000000000000000000000000000000000000000000000000000000000000000000000
310
00000000000800000002020000020200000000080808030008080300000000020000000202000008000000000000000000000000000000000000000000000000000000000000000000000000000000000000000000000000000000000000000000000000000000000000000000000000000000000000000000000000000000
310
00000000000000000000000000000000000000000000000000000000000000000000000000000000000000000000000000000000000000000000080000000202000000020000000808000003000000080000000202000000020200000800000000000000000000000000000000000000000000000000000000000000000000
310
00000000000000000000000000000000000000000000000000000000000000000000000000000000000000000000000000000000000000000000000000000000000000000000000000000000000000000000000000000000000000000000000000000000000000000000000000000008000002020000000002020000070800
310
00030000000803000002020000000202020008000000000000000000000000000000000000000000000000000000000000000000000000000000000000000000000000000000000000000000000000000000000000000000000000000000000000000000000000000000000000000000000000000000000000000000000000
310
00000000000000000000000000000000000000000000000000000000000000000000000000080000020200000000020200000708000096960000080700000202000000020202000800000000000000000000000000000000000000000000000000000000000000000000000000000000000000000000000000000000000000
310
00000000000000000000000000000000000000000000000000000000000000000000000000000000000000000000000000000000000000000000000000000000000000000000000000000000000000000000000000000000000008000002020000000002020000030800000300000008030000020200000002020200080000
310
00000000000000000000000000000000000000000000000000000000000000000000000000000000000000000000000000000000000000000000000000000000000000000000000000000000000000000000000000000000000000000000000000000000000000000000000000000000000000000000000000000000000000
310
00000000000000000000000000000000080000000202000000020000000808000003000008080000000202000000020200000800000000000000000000000000000000000000000000000000000000000000000000000000000000000000000000000000000000000000000000000000000000000000000000000000000000
310
00000000000000000000000000000000000000000000000000000000000000000000000000000000000000000000000000000000000000000000000000000000000000000008000000020202000202000000000808080308080803000000000202000202020000080000000000000000000000000000000000000000000000
310
00000000000000000000000000000000000000000000000000000000000000000000000000000000000000000000000000000000000000000000000000000000000000000000000000000000000000000000000000000000000000000000000000000000000000000000000000000000000000000000000000000800000000
310
02020202000000000000030808070800000000000002020202020000000800000000000000000000000000000000000000000000000000000000000000000000000000000000000000000000000000000000000000000000000000000000000000000000000000000000000000000000000000000000000000000000000000
310
00000000000000000000000000000000000000000000000000000000000000000000000000000000000000000000000008000000000002000000000000000000000700000000000000000000020000000000080000000000000000000000000000000000000000000000000000000000000000000000000000000000000000
310
00000000000000000000000000000000000000000000000000000000000000000000000000000000000000000000000000000000000000000000000000000000000000000000000000000000000000000000000000000000000000000000000000000000009600000000000000009608969608080000030000000000000000
310
00000000000000000800000000000000000000000000000000000000000000000000000000000000000000000000000000000000000000000000000000000000000000000000000000000000000000000000000000000000000000000000000000000000000000000000000000000000000000000000000000000000000000
310
00000000000000000000000000000000000000000000000000000096000000000000000096009696960800000300000000000000000000000000000000080000000000000000000000000000000000000000000000000000000000000000000000000000000000000000000000000000000000000000000000000000000000
310
000000000000000000000000000000000000000000000000000000000000000000000000000000000000000000000000000000000000000000000000000000000000000000000000000000000000000096A1080808080808A19608969608A1080808080808080808A1080808080808A1969696960000000000000000000000
310
00000000000000000000000000000000000000000000000000000000000000000000000000000000000000000000000000000000000000000000000000000000000000000000000000000000000000000000000000000000000000000000000000000000000000000000000000000000000000000000000000000000000000
310
000000000000A1A1A1A1A1A1A1A1A1A1A1A1A1A1A1A1A1A1A1A1A1A1A1A1A1A1A1A1A1A1A1A1A1A1A19600000000000000000000000000000000000000000000000000000000000000000000000000000000000000000000000000000000000000000000000000000000000000000000000000000000000000000000000000
310
0000000000000000000000000000000000000000000000000000000000000000000000000000000000000000000000000000000000000000000000A1A1000000000000A10000000000A1000003000000000000A1000000000000A1000000A10000000000000000000000000000000000000000000000000000000000000000
310
00000000000000000000000000000000000000000000000000000000000000000000000000000000000000000000000000000000000000000000000000000000000000000000000000000000000000000000000000000000000000000000000000000000000000000000000000000000A1A1A1A1A1A1A1A1A1A1A1A1A1A1A1
310
A1A1A1A1A1A1A1A1A1A1A1A1A1A1A1A1A1A1A1A1A100000000000000000000000000000000000000000000000000000000000000000000000000000000000000000000000000000000000000000000000000000000000000000000000000000000000000000000000000000000000000000000000000000000000000000000
310
00000000000000000000000000000000000000000000000000000000000000000000000000000000000000000000000000000000000000030000000000000000000000000000000000000000000000000000000000000000000000000000000000000000000000000000000000000000000000000000000000000000000000
310
00000000000000000000000000000000000000000000000000000000000000000000000000000000000000000000000000000000000000000000000000000000000000000000000000000000000000000000000000000000000000000000000000000000000000000000000003000000000000969600000000000000000000
310
00000000000000000000000000000000000000000000000000000000000000000000000000000000000000000000000000000000000000000000000000000000000000000000000000000000000000000000000000000000000000000000000000000000000000000000000000000000000000000000000000000000000000
310
000000000000000000000000000000000000000000000000000000000707A1080808030808080808080896000000000000000000000000000000000000000000000000000000000000000000000000000000000000000000000000000000000000000000000000000000000000000000000000000000000000000000000000
310
000000000000000000000000000000000000000000000000000000000000000000000000000000000000000000000000000000000000000000000000000000000000000000000000000000000000A10707070700A1000003000000000007A10800000000000000000000000000000000000000000000000000000000000000
310
00000000000000000000000000000000000000000000000000000000000000000000000000000000000000000000000000000000000000000000000000000000000000000000000000000000000000000000000000000000000000000000000000000000000000000000000000000000000000000000000000000000000000
310
00000000A1070707070707A10703070707070707A107080000000000000000000000000000000000000000000000000000000000000000000000000000000000000000000000000000000000000000000000000000000000000000000000000000000000000000000000000000000000000000000000000000000000000000
310
000000000000000000000000000000000000000000000000000000000000000000000000000000000000000000000000000000000000000008A1000707070707070703070707070707000700080000000000000000000000000000000000000000000000000000000000000000000000000000000000000000000000000000
310
0000000000000000000000000000000000000000000000000000000000000000000000000000000000000000000000000000000000000000000000000000000000000000000000000000000000000000000000000000000000000000000000000000000000000000000000000800A107070707000000000300000000070707
310
00070008000000000000000000000000000000000000000000000000000000000000000000000000000000000000000000000000000000000000000000000000000000000000000000000000000000000000000000000000000000000000000000000000000000000000000000000000000000000000000000000000000000
310
00000000000000000000000000000000000000000000000000000000000000000008000707070707070700000003000000000707070707070008000000000000000000000000000000000000000000000000000000000000000000000000000000000000000000000000000000000000000000000000000000000000000000
310
00000000000000000000000000000000000000000000000000000000000000000000000000000000000000000000000000000000000000000000000000000000000000000000000000000000000000000000000000080007070700070707000000000300000000070707000700070008000000000000000000000000000000
310
00000000000000000000000000000000000000000000000000000000000000000000000000000000000000000000000000000000000000000000000000000000000000000000000000000000000000000000000000000000000000000000000000000000000000000000000000000000000000000000000000000000000000
310
00000000000000000000080007070700000007000000000003000000000007000000070707000800000000000000000000000000000000000000000000000000000000000000000000000000000000000000000000000000000000000000000000000000000000000000000000000000000000000000000000000000000000
310
000000000000000000000000000000000000000000000000000000000000000000000000000000000000000000000000000000000000000000000000000008000007070000000000000000000003000000000000000000000007A1A1A1A1000000000000000000000000000000000000000000000000000000000000000000
310
00000000000000000000000000000000000000000000000000000000000000000000000000000000000000000000000000000000000000000000000000000000000000000000000000000000000000000000000000000000000000000000000000000000000000000000000000000000000008000007070000080807070000
310
00000003000000000000000000000000070707070000000000000000000000000000000000000000000000000000000000000000000000000000000000000000000000000000000000000000000000000000000000000000000000000000000000000000000000000000000000000000000000000000000000000000000000
310
00000000000000000000000000000000000000000000000000000000000000000000000000000008A10707070308080807070703000000000300000000000000000000000000070707070000000000000000000000000000000000000000000000000000000000000000000000000000000000000000000000000000000000
310
000000000000000000000000000000000000000000000000000000000000000000000000000000000000000000000000000000000000000000000000000000000000000000000000000000000000000000000000000000000000000008A1A10707070800000000080800000000030007070000000000000000000000070707
310
00000000000000000000000000000000000000000000000000000000000000000000000000000000000000000000000000000000000000000000000000000000000000000000000000000000000000000000000000000000000000000000000000000000000000000000000000000000000000000000000000000000000000
310
0000000000000000000000000000009696960807070707080000000000000803000000030007070000000000000000000000070707A100000000000000000000000000000000000000000000000000000000000000000000000000000000000000000000000000000000000000000000000000000000000000000000000000
310
00000000000000000000000000000000000000000000000000000000000000000000000000000000000000000000000000000000000000000000000000000000000000009600000800070703080000000800000808000000030000070000000000000000000000070707A10000000000000000000000000000000000000000
310
00000000000000000000000000000000000000000000000000000000000000000000000000000000000000000000000000000000000000000000000000000000000000000000000000000000000000000000000000000000000000000000000000000000000000000000000000000000000000000000000000960096080707
310
07080800000808000008080000000308000000000000000000000000000707A10000000000000000000000000000000000000000000000000000000000000000000000000000000000000000000000000000000000000000000000000000000000000000000000000000000000000000000000000000000000000000000000
310
00000000000000000000000000000000000000000000000000000000000000000000000000000000000000000000009600960807070708080000000000000807000808030708080000000000000000000000070708000000000000000000000000000000000000000000000000000000000000000000000000000000000000
310
00000000000000000000000000000000000000000000000000000000000000000000000000000000000000000000000000000000000000000000000000000000000000000000000000000000000000000000000000000000000000000000000000000000009600080007070008080000000008070708000703000708000000
310
00030803070000000707080000000000000000000000000000000000000000000000000000000000000000000000000000000000000000000000000000000000000000000000000000000000000000000000000000000000000000000000000000000000000000000000000000000000000000000000000000000000000000
310
00000000000000000000000000000000000000000000000000000000030303030303080708080808080803030303030303030303030808070708030303030703030000000000000000000000000000000000000000000000000000000000000000000000000000000000000000000000000000000000000000000000000000
310
00000000000000000000000000000000000000000000000000000000000000000000000000000000000000000000000000000000000000000000000000000000000000000000000000000000000000000000080007070000070708080800000008000703000700080308080800000308000007070796000000000000000000
310
00000000000000000000000000000000000000000000000000000000000000000000000000000000000000000000000000000000000000000000000000000000000000000000000000000000000000000000000000000000000000000000000000000000000000000000000000000000000000000000000000000000000000
310
00000000000000000800070700000000000000000000000807030707080007080000000000080300070708009696000000000000000000000000000000000000000000000000000000000000000000000000000000000000000000000000000000000000000000000000000000000000000000000000000000000000000000
310
0000000000000000000000000000000000000000000000000000000000000000000000000000000000000000000000000000000000000000000000000008A1A1070000000000000000000000080003000808030800000000000000080007070796969600000000000000000000000000000000000000000000000000000000
310
000000000000000000000000000000000000000000000000000000000000000000000000000000000000000000000000000000000000000000000000000000000000000000000000000000000000000000000000000000000000000000000000000000000000000000000000000000000000A1000707000000000000000000
310
00000008030800000308000000080000000803070707969696000000000000000000000000000000000000000000000000000000000000000000000000000000000000000000000000000000000000000000000000000000000000000000000000000000000000000000000000000000000000000000000000000000000000
310
00000000000000000000000000000000000000000000000000000000000000000000000000000000A10707070000000000000000000007070703000000000808000000000008070007070796969600000000000000000000000000000000000000000000000000000000000000000000000000000000000000000000000000
310
00000000000000000000000000000000000000000000000000000000000000000000000000000000000000000000000000000000000000000000000000000000000000000000000000000000000000000000000000000000000000000007070707000000000000000000000707070300000000030800000000000807000707
310
08000000000000000000000000000000000000000000000000000000000000000000000000000000000000000000000000000000000000000000000000000000000000000000000000000000000000000000000000000000000000000000000000000000000000000000000000000000000000000000000000000000000000
310
00000000000000000000000000000000000000000807070700000000000000000000000003000000000008080808000808000700070800000000000000000000000000000000000000000000000000000000000000000000000000000000000000000000000000000000000000000000000000000000000000000000000000
310
00000000000000000000000000000000000000000000000000000000000000000000000000000000000000000000000000000000000000000000000000000000000000000000000000070707000700000000000000000000000300000000000007070808030007000708A10000000000000000000000000000000000000000
310
000000000000000000000000000000000000000000000000000000000000000000000000000000000000000000000000000000000000000000000000000000000000000000000000000000000000000000000000000000000000000000000000000000000000000000000000000000000000000000000000000000000000A1
310
A1A10700070000000000000000000003000000000000000003000007000708000000000000000000000000000000000000000000000000000000000000000000000000000000000000000000000000000000000000000000000000000000000000000000000000000000000000000000000000000000000000000000000000
310
00000000000000000000000000000000000000000000000000000000000000000000000000000000000000000000000000000000000008000700070000000000000000000300000000000000000007070007080000000000000000000000000000000000000000000000000000000000000000000000000000000000000000
310
00000000000000000000000000000000000000000000000000000000000000000000000000000000000000000000000000000000000000000000000000000000000000000000000000000000000000000000000000000000000000000000000000000000000000000000000008000700070007070700000000030000000007
310
07070007000007080000000000000000000000000000000000000000000000000000000000000000000000000000000000000000000000000000000000000000000000000000000000000000000000000000000000000000000000000000000000000000000000000000000000000000000000000000000000000000000000
310
00000000000000000000000000000000000000000000000000000000000000000000000800070007070707070000000300000000070707070700070008000000000000000000000000000000000000000000000000000000000000000000000000000000000000000000000000000000000000000000000000000000000000
310
00000000000000000000000000000000000000000000000000000000000000000000000000000000000000000000000000000000000000000000000000000000000000000000000000000000000000000000000000000000000800070007070707000000030000000007070700000700080000000000000000000000000000
310
00000000000000000000000000000000000000000000000000000000000000000000000000000000000000000000000000000000000000000000000000000000000000000000000000000000000000000000000000000000000000000000000000000000000000000000000000000000000000000000000000000000000000
310
000000000000000000000000000000000800070007070707070707070707070707070707A1080000000000000000000000000000000000000000000000000000000000000000000000000000000000000000000000000000000000000000000000000000000000000000000000000000000000000000000000000000000000
310
0000000000000000000000000000000000000000000000000000000000000000000000000000000000000000000000000000000000000000000000000000000000000000000008000700000000000003000000000707070707A100000000000000000000000000000000000000000000000000000000000000000000000000
310
00000000000000000000000000000000000000000000000000000000000000000000000000000000000000000000000000000000000000000000000000000000000000000000000000000000000000000000000000000000000000000000000000000000000000000000000000000000000000000000000000000000070707
310
0707070707070707070707070707A100000000000000000000000000000000000000000000000000000000000000000000000000000000000000000000000000000000000000000000000000000000000000000000000000000000000000000000000000000000000000000000000000000000000000000000000000000000
310
000000000000000000000000000000000000000000000000000000000000000000000000000000000000000000000000000096969607080808080308080807A1070707000000000000000000000000000000000000000000000000000000000000000000000000000000000000000000000000000000000000000000000000
310
0000000000000000000000000000000000000000000000000000000000000000000000000000000000000000000000000000000000000000000000000000000000000000000000000000000000000000000000000000000000000000000000000000000000000000969600000000000300000000A1A1000000000000000000
310
00000000000000000000000000000000000000000000000000000000000000000000000000000000000000000000000000000000000000000000000000000000000000000000000000000000000000000000000000000000000000000000000000000000000000000000000000000000000000000000000000000000000000
310
00000000000000000000000000000000000000000000000000000000000000000000000000000000000000000000000000000000000000000000000000000000000000000000000000000000000000000000000000000000000000000000000000000000000000000000000000000000000000000000000000000000000000
310
00000000000000000000000000000000000000000000000000000000000000000000000000000000000000000000000000000000000000000000000000000000000000000000000000000000000000000000000000000000000000000000000000000000000000000000000000000000000000000000000000000000000000
310
00000000000000000000000000000000000000000000000000000000000000000000000000000000000000000000000000000000000000000000000000000000000000000000000000000000000000000000000000000000000000000000000000000000000000000000000000000000000000000000000000000000000000
310
000000000000000000000000000000000000000000000000000000000000000000000000000000000000000000000000000000000000000000000000000000000000000000000000000000000000000000000000000000000000000000000000000000000000000000000000
  0
ENDSEC
  0
EOF
